Oops, an error
Loading. Please wait.

Take Good Care Of My Baby bass

1,938 views 3 this week
1 commentread comment
1 2 3 4 5
1 last vote to show rating
add to favorites
×
Save as Personal and add changes to this tab that will be seen only by you. Learn more ›
×
You can save this tab as Personal to edit and correct it or add notes. All changes will be seen only by you. Learn more »
launch autoscroll
font size
0
reset
guitar tuner
edit
Autoscroll
slow
fast
+/-
esc
set tempo
stop
Author
Take Good Care Of My Baby
The Beatles
Written by Gerry Goffin and Carole King

A song from the Decca audition, sung by George; just great :-)

Intro:
G|--------------------------------------------|------------------------------------|
D|--------------------------------------------|------------------------------------|
A|--------------------------------------------|7-----------------------------------|
E|--------------------------------------------|------------------------------------|
                      My     tears     are     falling,                  'cause you've


G|------------------------------------|--------------------------------------------|
D|------------------------------------|--------------------------------------------|
A|------------------------------------|5-------------------------------------------|
E|8-----------------------------------|--------------------------------------------|
  ta - ken     her     a    -   way,                                         And


G|---------------------------|-------------------------------------------------|
D|5--------------------------|5------------------------------------------------|
A|---------------------------|-------------------------------------------------|
E|---------------------------|-------------------------------------------------|
  though  it      really      hurts   me      so,                   there's


G|--------------------------------------------|
D|--------------------------------------------|
A|--------------------------------------------|
E|8-------------------------------------------|
  something that I've              got to  say


G|---------------------------------------------------------|
D|---------------------------------------------------------|
A|5--------------------------------------------------------|
E|---------------------------------------------------------|


Verse:
G|------- ------- ------- -------|------- ------- ------- -------|
D|5-----------------------4------|2------------------------------|
A|----------------5--------------|----------------2--------------|
E|-------------------------------|-------------------------------|
          Take            good    care            of      my


G|------- ------- ------- -------|------- ------- ------- -------|
D|----------------5--------------|----------------------------4--|
A|3------------------------------|5-------5---5-------5---5------|
E|-------------------------------|-------------------------------|
          ba          -           by,


G|------- ------- ------- -------|------- ------- ------- -------|
D|5-----------------------4------|2------------------------------|
A|----------------5--------------|----------------2--------------|
E|-------------------------------|-------------------------------|
              Please,     don't   e - ver     make    her


G|------- ------- ------- -------|------- ------- ------- -------|
D|----------------5--------------|----------------------------4--|
A|3-----------3-----------3------|5-------5---5-------5---5------|
E|-------------------------------|-------------------------------|
  blue,


G|------- ------- ------- -------|------- ------- ------- -------|
D|5---------------------------4--|5-----------5------------------|
A|----------------5--------------|----------------5-------4------|
E|-------------------------------|-------------------------------|
          Just    tell her        that    you love    her,


G|------- ------- ------- -------|------- ------- ------- -------|
D|----------------5-----------5--|-------------------------------|
A|3-----------3------------------|3-----------3---6--------------|
E|-------------------------------|-------------------------------|
          make    sure    you're  thin -  king of     her


G|------- ------- ------- -------|------- ------- ------- -------|
D|5-----------5------------------|2------------------------------|
A|----------------5--------------|----------------2-----------2--|
E|-------------------------------|-------------------------------|
          In  eve  -  ry  -   thing       you     say     or


G|------- ------- ------- -------|------- ------- ------- -------|
D|----------------5--------------|-------------------------------|
A|3-----------------------3------|5-------5---5-------5---5------|
E|-------------------------------|-------------------------------|
  do.

Verse:
G|------- ------- ------- -------|------- ------- ------- -------|
D|5-----------------------4------|2------------------------------|
A|----------------5--------------|----------------2--------------|
E|-------------------------------|-------------------------------|
          Take            good    care            of      my


G|------- ------- ------- -------|------- ------- ------- -------|
D|----------------5--------------|----------------------------4--|
A|3------------------------------|5-------5---5-------5---5------|
E|-------------------------------|-------------------------------|
          ba          -           by,


G|------- ------- ------- -------|------- ------- ------- -------|
D|5---------------------------4--|2------------------------------|
A|----------------5--------------|----------------2--------------|
E|-------------------------------|-------------------------------|
          Now,    don't       you e - ver     make    her


G|------- ------- ------- -------|------- ------- ------- -------|
D|----------------5--------------|----------------------------4--|
A|3-----------------------3------|5-------5---5-------5---5------|
E|-------------------------------|-------------------------------|
  cry,


G|------- ------- ------- -------|------- ------- ------- -------|
D|5---------------------------4--|5-----------5------------------|
A|----------------5--------------|----------------5-------4------|
E|-------------------------------|-------------------------------|
          Just    let your        love    surround    her,


G|------- ------- ------- -------|------- ------- ------- -------|
D|----------------5-----------5--|-------------------------------|
A|3-----------3------------------|3-----------3---6-------5------|
E|-------------------------------|-------------------------------|
          paint a rain -  bow     all     a - round   her,


G|------- ------- ------- -------|------- ------- ------- -------|
D|5-----------5---------------5--|-------------------------------|
A|----------------5--------------|3-----------3---5-----------5--|
E|-------------------------------|-------------------------------|
          Don't   let her     see     a       clou    -   dy


G|------- ------- ------- -------|------- ------- ------- -------|
D|5------------------------------|5------------------------------|
A|--------7-------5--------------|------------------------2------|
E|------------------------7------|--------3-------5--------------|
  sky.

Bridge:
G|------- ------- ------- -------|------- ------- ------- -------|
D|-------------------------------|-------------------------------|
A|3---------------3--------------|5---------------5--------------|
E|-------------------------------|-------------------------------|
  Once    u - pon     a       time                        that


G|------- ------- ------- -------|------- ------- ------- -------|
D|5------------------------------|2------------------------------|
A|----------------5--------------|----------------2--------------|
E|-------------------------------|-------------------------------|
  little  girl            was     mine,


G|------- ------- ------- -------|------- ------- ------- -------|
D|----------------5--------------|-------------------------------|
A|3------------------------------|5---------------5--------------|
E|-------------------------------|-------------------------------|
          If  I've        been    true,                   I


G|------- ------- ------- -------|------- ------- ------- -------|
D|5---------------2--------------|-------------------------------|
A|-------------------------------|3---------------5-------5------|
E|-------------------------------|-------------------------------|
  know    she'd   ne- ver     be          with    you.

Verse:
G|------- ------- ------- -------|------- ------- ------- -------|
D|5-----------------------5---4--|2------------------------------|
A|----------------5--------------|------------------------2------|
E|-------------------------------|-------------------------------|
          So      take    good    care            of      my


G|------- ------- ------- -------|------- ------- ------- -------|
D|----------------5--------------|----------------------------4--|
A|3-----------3------------------|5-------5---5-------5---5------|
E|-------------------------------|-------------------------------|
          ba          -           by,


G|------- ------- ------- -------|------- ------- ------- -------|
D|5-----------------------5---4--|2------------------------------|
A|----------------5--------------|----------------2-----------2--|
E|-------------------------------|-------------------------------|
          Be      just        as  kind    as      you     can


G|------- ------- ------- -------|------- ------- ------- -------|
D|----------------5--------------|----------------------------4--|
A|3-----------3-----------3------|5-------5---5-------5---5------|
E|-------------------------------|-------------------------------|
  be,


G|------- ------- ------- -------|------- ------- ------- -------|
D|5---------------------------4--|5-----------5------------------|
A|----------------5--------------|----------------5-------4------|
E|-------------------------------|-------------------------------|
          And     if  you         should  dis  -  co- ver


G|------- ------- ------- -------|------- ------- ------- -------|
D|----------------5--------------|-------------------------------|
A|3------------------------------|3---------------6-------5------|
E|-------------------------------|-------------------------------|
      that    you     don't       really  love her,


G|------- ------- ------- -------|------- ------- ------- -------|
D|5-----------------------5---4--|2------------------------------|
A|----------------5--------------|----------------2-------2------|
E|-------------------------------|-------------------------------|
      just send           my      ba      -       by  back


G|------- ------- ------- -------|------- ------- ------- -------|
D|----------------5--------------|-------------------------------|
A|3-----------------------3------|5-----------5-----------5------|
E|-------------------------------|-------------------------------|
  home                            to


G|------- ------- ------- -------|------- ------- ------- -------|
D|5------------------------------|-------------------------------|
A|-------------------------------|-------------------------------|
E|-------------------------------|-------------------------------|
  me.


G|------- ------- ------- -------|------- ------- ------- -------|
D|-------------------------------|----------------5----6-----8---|
A|6------------------------------|-----6-----8-------------------|
E|-------------------------------|-------------------------------|


Verse:
G|------- ------- ------- -------|------- ------- ------- -------|
D|6-----------------------6---5--|3------------------------------|
A|----------------6--------------|----------------3--------------|
E|-------------------------------|-------------------------------|
          Take            good    care            of      my


G|------- ------- ------- -------|------- ------- ------- -------|
D|----------------6--------------|----------------------------5--|
A|4------------------------------|6-------6---6-------6---6------|
E|-------------------------------|-------------------------------|
          ba          -           by,


G|------- ------- ------- -------|------- ------- ------- -------|
D|6-------6---------------6---5--|3------------------------------|
A|----------------6--------------|----------------3--------------|
E|-------------------------------|-------------------------------|
          Be      just        as  kind    as      you     can


G|------- ------- ------- -------|------- ------- ------- -------|
D|----------------6--------------|-------------------------------|
A|4-----------------------4------|6-------6---6-------6---6------|
E|-------------------------------|-------------------------------|
  be,


G|------- ------- ------- -------|------- ------- ------- -------|
D|6---------------------------5--|6-----------6------------------|
A|----------------6--------------|----------------6-------5------|
E|-------------------------------|-------------------------------|
          And     if  you         should  dis  -  co- ver


G|------- ------- ------- -------|------- ------- ------- -------|
D|----------------6-----------6--|-------------------------------|
A|4-----------4------------------|4-----------4---7-------6------|
E|-------------------------------|-------------------------------|
      that    you     don't       really  love her,


G|------- ------- ------- -------|------- ------- ------- -------|
D|6-----------------------6---5--|3------------------------------|
A|----------------6--------------|----------------3-------3------|
E|-------------------------------|-------------------------------|
      just send       my      ba    -     by      back


G|------- ------- ------- -------|------- ------- ------- -------|
D|----------------6--------------|-------------------------------|
A|4-----------------------4------|6-------6-------6-------6------|
E|-------------------------------|-------------------------------|
  home                            to


G|------- ------- ------- -------|------- ------- ------- -------|
D|6-----------------------6---5--|3------------------------------|
A|----------------6--------------|----------------3--------------|
E|-------------------------------|-------------------------------|
  me.


G|------- ------- ------- -------|------- ------- ------- -------|
D|----------------6--------------|-------------------------------|
A|4-----------------------4------|6-------6---6-------6---6------|
E|-------------------------------|-------------------------------|


Outro:
G|------- ------- ------- -------|------- ------- ------- -------|
D|6-----------------------6---5--|3------------------------------|
A|----------------6--------------|----------------3--------------|
E|-------------------------------|-------------------------------|
          Take            good    care            of      my


G|------- ------- ------- -------|------- ------- ------- -------|
D|----------------6--------------|----------------------------5--|
A|4------------------------------|6-------6---6-------6---6------|
E|-------------------------------|-------------------------------|
          ba          -           by,


G|------- ------- ------- -------|------- ------- ------- -------|
D|6------------------------------|3------------------------------|
A|----------------6--------------|----------------3--------------|
E|-------------------------------|-------------------------------|
          Take            good    care            of      my


G|------- ------- ------- -------|------- ------- ------- -------|
D|----------------6--------------|----------------------------5--|
A|4------------------------------|6-------6---6-------6---6------|
E|-------------------------------|-------------------------------|
          ba          -           by,


G|------- ------- ------- -------|------- ------- ------- -------|
D|6-----------------------5------|3------------------------------|
A|----------------6--------------|----------------3--------------|
E|-------------------------------|-------------------------------|
          Take            good    care            of      my


G|------- ------- ------- -------|------- ------- ------- -------|
D|----------------6--------------|----------------------------5--|
A|4------------------------------|6-------6---6-------6---6------|
E|-------------------------------|-------------------------------|
          ba          -           by,


G|------- ------- ------- -------|------- ------- ------- -------|
D|6------------------------------|-------------------------------|
A|----------------6--------------|4---------------4--------------|
E|-------------------------------|-------------------------------|
  ooooooooooooooooooooooooooooooooooooooooooooooooooooooooooooooo


G|------- ------- ------- -------|------- ------- ------- -------|
D|6-------6---6-------6---6------|6------------------------------|
A|-------------------------------|-------------------------------|
E|-------------------------------|----------------4--------------|
  ooooooooooooooooooooooooooooooo

Please e-mail me for any corrections, or write a comment.

            
            
Suggest correction
Creating personal tab
Creating personal tab
You can edit any tab online and save it as your Personal.

You can edit, replace or remove any tab part or add personal notes – all changes will be seen only by you.

Personal tabs can be accessed anytime from any device, even offline.
Learn more »
Give kudos to tab author, rate the tab!
1 2 3 4 5
comments
print report bad tab
1 comment total.
+1 reply
bass69 5,068 Mar 22, 2010 05:41 PM

very good that man 5*

guest
You may want to rate the tab now too:
select rating
Wanna post a correction for this tab? Suggest correction