Oops, an error
Loading. Please wait.

Taxman Bass

version 2
version 2

Whole song

Interactive

31,156 views 18 this week
4 commentsread comments
1 2 3 4 5
x 15
add to favorites
launch autoscroll
font size
0
reset
guitar tuner
backing track
0:00
0:00
×
Best way to learn
"Taxman"
Autoscroll
slow
fast
+/-
esc
set tempo
stop
Author
The other tab for the song is right but is missing some parts.  here is the complete tab.

verse
    repeat   then...
E|--77-----7--|-----------7-----------------------
A|-----5h7----|--------5h7------------------------
D|-5----------|------55---------------------------
G|------------|-----------------------------------

Chorus
E|--55----3--|--55----3-|----------|---77-----7------
A|----3h5----|----3h5---|--55---3--|------5h7--------
D|-3---------|-3--------|----3h5---|--5--------------
G|-----------|----------|-3--------|-----------------

that is the main riff but during one of the verses ("If you drive a...")Paul
throws in this little riff, this is done fast and you should listen for timing.
                                           
                                                x2
E|------5-5--------5-5--------5-5------------------
A|--0-57-7-7\--0-57-7-7\--0-57-7-7\----------------
D|-----------------------------------3333----------
G|-------------------------------------------------

so thats the song, enjoy.

Tabbed by Chris

leroythebassman@hotmail.com
Suggest correction
comments
print report bad tab
4 comments total. Showing first comments.
+2 reply
DethProduct 70 Jan 12, 2007 01:18 PM

This Tab is really confusing because of the strings i mean you might screw somone up so you should probly fix that

0 reply
Sp00nman94 176 Jun 18, 2008 03:18 PM

i think the tab of the main riff is perfect but idk about the "if you drive a car" part tho

-1 reply
wunderdog 331 Nov 29, 2008 08:07 PM

Here's the bridge. Cheers

Bridge
Q S S E S E E E. E S S S S S S S E. Q
G||-------7-7---------5------|-----------7---0-----7-----------|
D||--------------5-7---------|--0------9-------7-9---9---7\----|
A||--5-----------------------|---------------------------------|
E||--------------------------|---------------------------------|

E S S S S S S S Q. S E S S S S S S S Q. S
-------7---0-----7-----------|-------7---0-----7-----------|
--0--9-------7-9---9\--------|--0--9-------7-9---9\--------|
-----------------------------|-----------------------------|
-----------------------------|-----------------------------|

Q E. S S S E Q E S S S S S S S Q. S
--------------------------|-------7---0-----7-----------|
--------------------------|--0--9-------7-9---9\--------|
--3----3---3-2s-3-3--3----|-----------------------------|
--------------------------|-----------------------------|

E S S S S S S S Q. S E S S S S S S S Q. S
-------7---0-----7-----------|-------7---0-----7-----------|
--0--9-------7-9---9\--------|--0--9-------7-9---9\--------|
-----------------------------|-----------------------------|
-----------------------------|-----------------------------|

Q E. S S S E S E. S E. S E. S E. Q
----------------------------|----------------------------|
----------------------------|----------------------------|
--3----3---3-2s-3-3--2s-3---|--2s-3---2s-3---2s-3---3----|
----------------------------|----------------------------|

Q S S E S E E E.
-------7-7---------5------||
--------------5-7---------||
--5-----------------------||
--------------------------||

guest
You may want to rate the tab now too:
select rating
Wanna post a correction for this tab? Suggest correction