Oops, an error
Loading. Please wait.
We have an official Taxman tab made by UG professional guitarists. Check out the tab »
×
1,871 views 1 this week
1 commentread comment
1 2 3 4 5
2 more votes to show rating
add to favorites
×
Save as Personal and add changes to this tab that will be seen only by you. Learn more ›
×
You can save this tab as Personal to edit and correct it or add notes. All changes will be seen only by you. Learn more »
launch autoscroll
font size
0
reset
guitar tuner
backing track
0:00
0:00
edit
Autoscroll
slow
fast
+/-
esc
set tempo
stop
Author
Bass
     Bridge                                                                
     S.     T S S  S S S S S E.  Q        S. T S S  S S S S S. Q     E  T  
G||-------------7p---0-----7-----------|---------7p---0-----7-------------|
D||--0--------9--------7-9---9---7\----|--0----9--------7-9----9\---------|
A||------------------------------------|----------------------------------|
E||------------------------------------|----------------------------------|


  S. T S S  S S S S S. Q     E  T    Q    E.  S S  S E  Q     
---------7p---0-----7-------------|--------------------------|
--0----9--------7-9----9\---------|--------------------------|
----------------------------------|--3----3---3-2s-3-3--3----|
----------------------------------|--------------------------|


  S. T S S  S S S S S. Q     E  T    S. T S S  S S S S S. Q     E  T  
---------7p---0-----7-------------|---------7p---0-----7-------------|
--0----9--------7-9----9\---------|--0----9--------7-9----9\---------|
----------------------------------|----------------------------------|
----------------------------------|----------------------------------|


  S. T S S  S S S S S. Q     E  T    Q    E.  S S  S E  S  E.   
---------7p---0-----7-------------|----------------------------|
--0----9--------7-9----9\---------|----------------------------|
----------------------------------|--3----3---3-2s-3-3--2s-3---|
----------------------------------|----------------------------|


                               D riff                            
  S  E.  S  E.  S  E.  Q       E      E  S S  S S T  S. E  Q     
----------------------------|------------7-7p---0-------5-------|
----------------------------|---------------------5h-7----------|
--2s-3---2s-3---2s-3---3----|--5--------------------------------|
----------------------------|-----------------------------------|


  C riff                              G riff                            
  E      E  S S  S S T  S. E  Q       E      E  S S  S S T S. E  Q      
------------5-5p---0-------3-------|----------------------------------||
---------------------3h-5----------|------------5-5p---0------3-------||
--3--------------------------------|---------------------3-5----------||
-----------------------------------|--3-------------------------------||

W - whole
H - half
Q - quarter
E - 8th
S - 16th
T - 32nd
X - 64th
. - note dotted

            
            
Suggest correction
Creating personal tab
Creating personal tab
You can edit any tab online and save it as your Personal.

You can edit, replace or remove any tab part or add personal notes – all changes will be seen only by you.

Personal tabs can be accessed anytime from any device, even offline.
Learn more »
Give kudos to tab author, rate the tab!
1 2 3 4 5
comments
print report bad tab
1 comment total.
0 reply
wunderdog 331 Jul 13, 2010 06:09 PM

Most or all Taxman bass tabs are incorrect for at least the very fast bridge section. Throughout taxman Macca uses pull-offs onto open strings, but especially in the bridge. A 7th note (C) is not used in the bridge, but a 6th (B). You can hear this better by removing the vocals and slowing down the song. Play along and you’ll see. He does a similar trick in Got To Get You Into My Life. Pull-offs are not always used throughout, but examples are given for the rest of the song.

guest
You may want to rate the tab now too:
select rating
Wanna post a correction for this tab? Suggest correction