Oops, an error
Loading. Please wait.

Taxman tab

version 4
version 4

Whole song

Interactive

10,346 views 21 this week
no commentswrite comment
1 2 3 4 5
x 4
add to favorites
×
Save as Personal and add changes to this tab that will be seen only by you. Learn more ›
×
You can save this tab as Personal to edit and correct it or add notes. All changes will be seen only by you. Learn more »
launch autoscroll
font size
0
reset
how to read this tab
guitar tuner
backing track
0:00
0:00
edit
Autoscroll
slow
fast
+/-
esc
set tempo
stop
Author
TAXMAN


Written by George Harrison


  INTRO


   D7
e|---------------------------------|---------------------------------|
B|---------3---------------3-------|---------3---------------3-------|
G|---------5---------------5-------|---------5---------------5-------|
D|---------4---------------4-------|---------4---------------4-------|
A|---------------------------------|---------------------------------|
E|---------------------------------|---------------------------------|
                                                             Let me




  VERSE


   D7
e|---------------------------------|---------------------------------|
B|---------3---------------3-------|---------3---------------3-------|
G|---------5---------------5-------|---------5---------------5-------|
D|---------4---------------4-------|---------4---------------4-------|
A|---------------------------------|---------------------5-----------|
E|---------------------------------|---------------------------------|
       tell    you     how     it        will    be



   D7#9                    D7
e|---------------------------------|---------------------------------|
B|-6-------6---------------3-------|---------3---------------3-------|
G|-5-------5---------------5-------|---------5---------------5-------|
D|-4-----------------------4-------|---------4---------------4-------|
A|---------------------5-----------|---------------------------------|
E|---------------------------------|---------------------------------|
                                                             There's
                                                                 one




e|---------------------------------|---------------------------------|
B|---------3---------------3-------|---------3---------------3-------|
G|---------5---------------5-------|---------5---------------5-------|
D|---------4---------------4-------|---------4---------------4-------|
A|---------------------------------|---------------------5-----------|
E|---------------------------------|---------------------------------|
       for     you     nineteen          for     me



   D7#9                    D7
e|---------------------------------|---------------------------------|
B|-6-------6---------------3-------|---------3---------------3-------|
G|-5-------5---------------5-------|---------5---------------5-------|
D|-4-----------------------4-------|---------4---------------4-------|
A|---------------------------------|---------------------------------|
E|---------------------------------|---------------------------------|
                                                         Cos I'm the



   C5
e|---------------------------------|---------------------------------|
B|---------1---------------1-------|---------1---------------1-------|
G|---------0---------------0-------|---------0---------------0---0---|
D|---------------------------------|---------------------------------|
A|---------------------------------|---------------------------------|
E|---------------------------------|---------------------------------|
   taxman                                yeah            I'm     the



   G7                                D7
e|---------------------------------|---------------------------------|
B|---------6---------------6-P-3---|---------3---------------3-------|
G|---------4---------------4-------|---------5---------------5-------|
D|---------------------------------|---------4---------------4-------|
A|---------------------------------|--------------------(5)----------|
E|---------------------------------|---------------------------------|
       taxman




e|---------------------------------|
B|---------3---------------3-------|
G|---------5---------------5-------|
D|---------4---------------4-------|
A|---------------------5....-------|
E|---------------------------------|
                           Should
                               five




  VERSE


   D7
e|---------------------------------|---------------------------------|
B|---------3---------------3-------|---------3---------------3-------|
G|---------5---------------5-------|---------5---------------5-------|
D|---------4---------------4-------|---------4---------------4-------|
A|---------------------5....-------|---------------------5....-------|
E|---------------------------------|---------------------------------|
       per     cent    appear            too     small



   D7#9                    D7
e|---------------------------------|---------------------------------|
B|-6-------6---------------3-------|---------3---------------3-------|
G|-5-------5---------------5-------|---------5---------------5-------|
D|-4-----------------------4-------|---------4---------------4-------|
A|---------------------------------|---------------------5....-------|
E|---------------------------------|---------------------------------|
                                                             be  thank...




e|---------------------------------|---------------------------------|
B|---------3---------------3-------|---------3---------------3-------|
G|---------5---------------5-------|---------5---------------5-------|
D|---------4---------------4-------|---------4---------------4-------|
A|---------------------5....-------|---------------------5....-------|
E|---------------------------------|---------------------------------|
   ....ful     I       don't   take      it      all



   D7#9                    D7 
e|---------------------------------|---------------------------------|
B|-6-------6---------------3-------|---------3---------------3-------|
G|-5-------5---------------5-------|---------5---------------5-------|
D|-------------------------4-------|---------4---------------4-------|
A|---------------------5....-------|-------------------4/5....-------|
E|---------------------------------|---------------------------------|
                                                         Cos I'm the



   C5
e|---------------------------------|---------------------------------|
B|---------1---------------1-------|---------1---------------1-------|
G|---------0---------------0-------|---------0---------------0-------|
D|----------------------------H3---|---------------------------------|
A|---------------------------------|---------------------------------|
E|---------------------------------|---------------------------------|
   taxman                                yeah            I'm     the



   G7                                D7
e|---------------------------------|---------------------------------|
B|---------6---------------6-------|---------3---------------3-------|
G|---------4---------------4-------|---------5---------------5-------|
D|---------------------------------|---------4---------------4-------|
A|---------------------------------|--------------------(5)----------|
E|---------------------------------|---------------------------------|
       taxman




e|---------------------------------|
B|---------3---------------3-------|
G|---------5---------------5-------|
D|---------4-----3/4------(4)------|
A|---------------------------------|
E|---------------------------------|
                       If  you drive




  BRIDGE


   D7
e|---------------------------------|---------------------------------|
B|---------3---------------3-------|---------3---------------3-------|
G|---------5---------------5-------|---------5---------------5-------|
D|---------4---------------4-------|---------4---------------4-------|
A|---------------------5....-------|---------------------------------|
E|---------------------------------|---------------------------------|
                       I'll    tax       the     street
       a       car,    car                               If  you try



                                     C7
e|---------------------------------|---------------------------------|
B|---------3---------------3-------|---------1---------------1-------|
G|---------5---------------5-------|---------3---------------3-------|
D|---------4---------------4-------|---------2---------------2-------|
A|---------------------------------|---------------------------------|
E|---------------------------------|---------------------------------|
                       I'll    tax       your    seat
       to      sit,    sit                               If  you get



   D7
e|---------------------------------|---------------------------------|
B|---------3---------------3-------|---------3---------------3-------|
G|---------5---------------5-------|---------5-----H-5-------5-------|
D|---------4---------------4-------|---------4---------------4-------|
A|--------------------(5)----------|---------------------------------|
E|---------------------------------|---------------------------------|
                       I'll    tax       the     heat
       too     cold,   cold                              If  you take



                                     C7
e|---------------------------------|---------------------------------|
B|---------3---------------3-------|---------1---------------1-------|
G|---------5---------------5-------|---------3---------------3-------|
D|-4-------4---------------4-------|---------2---------------2-------|
A|-5-------------------------------|---------------------3....-------|
E|---------------------------------|---------------------------------|
                       I'll    tax       your    feet
       a       walk,   walk




e|---------------------------------|---------------------------------|
B|---------------------------------|---------3---------------3-------|
G|---------------------------------|---------5---------------5-------|
D|-----2---2---2---2---2---2---2---|2/4------4---------------4-------|
A|---------3---3---3---3---3---3---|3/5------------------------------|
E|---------------------------------|---------------------------------|
                                     Taxman!




  GUITAR SOLO


      D7
   e|-----------------------------------------------------------------|
   B|------------------------------------------------------6----8-----|
   G|-7----7----7-----7----7----7-----7----7----7-----7---------------|
   D|-0---------------0---------------0---------0---------------------|
   A|-----------------------------------------------------------------|
   E|-----------------------------------------------------------------|

   e|-----------------------------------------------------------------|
   B|-----------------3-------------------------------3---------------|
   G|-----------------5-------------------------------5---------------|
   D|-----------------4-------------------------------4---------------|
   A|-----------------------------------------5........---------------|
   E|-----------------------------------------------------------------|




      D7#9                                            D7
   e|---------------------------------10------------------------------|
   B|-8-B-9-R-8--6---B---------------6..------------------------------|
   G|-----------------------7-------------------------7---------------|
   D|-----------------------------------------------------------------|
   A|-----------------------------------------------------------------|
   E|-----------------------------------------------------------------|

   e|-----------------------------------------------------------------|
   B|-6---------------6-----------------------------------------------|
   G|-5---------------5-------------------------------5---------------|
   D|-----------------------------------------------------------------|
   A|-----------------------------------------------------------------|
   E|-----------------------------------------------------------------|





   e|-----------------------------------------------------------------|
   B|-9-\-8---6-H-8---6-B-7-------------------------------------------|
   G|-------------------------7-~~~~----------7-~~~~------------------|
   D|-----------------------------------------------------------------|
   A|-----------------------------------------------------------------|
   E|-----------------------------------------------------------------|

   e|-----------------------------------------------------------------|
   B|-----------------3-------------------------------3---------------|
   G|-----------------5-------------------------------5---------------|
   D|-----------------4-------------------------------4---------------|
   A|-----------------------------------------------------------------|
   E|-----------------------------------------------------------------|





   e|-----------------------------------------------------------------|
   B|-----------------------------------------------------------------|
   G|-7---------------6H7P6\4-6-------4H6P4\2-4-------2H4P2P0--0H2H4--|
   D|-----------------------------------------------------------------|
   A|-----------------------------------------------------------------|
   E|-----------------------------------------------------------------|

   e|-----------------------------------------------------------------|
   B|-----------------3-------------------------------3---------------|
   G|-----------------5-------------------------------5---------------|
   D|-----------------4-------------------------------4---------------|
   A|-----------------------------------------------------------------|
   E|-----------------------------------------------------------------|





   e|-----------------------------------------------------------------|
   B|-----------------------------------------------------------------|
   G|-5---------5/7---------------------------7-~~~~------------------|
   D|-------------------------0---------------------------0-----------|
   A|-----------------------------------------------------------------|
   E|-----------------------------------------------------------------|

   e|-----------------------------------------------------------------|
   B|-----------------3-------------------------------3---------------|
   G|-----------------5-------------------------------5---------------|
   D|-----------------4-------------------------------4---------------|
   A|-----------------------------------------------------------------|
   E|-----------------------------------------------------------------|




      D7#9                                            D7
   e|-----------------------------------------------------------------|
   B|-8-B-R------6B7------------------6-----------6-------6---6-------|
   G|-----------------------7-----------------7-----------------------|
   D|-----------------------------------------------------------------|
   A|-----------------------------------------------------------------|
   E|-----------------------------------------------------------------|

   e|-----------------------------------------------------------------|
   B|-6---------------6-------------------------------3---------------|
   G|-5---------------5-------------------------------5---------------|
   D|-4---------------4-------------------------------4---------------|
   A|-----------------------------------------------------------------|
   E|-----------------------------------------------------------------|





   e|---------------------------------10----------\---2---------------|
   B|-8-B-9-R-8--6---B------------------------------------------------|
   G|-----------------------7-----------------------------------------|
   D|-----------------------------------------------------------------|
   A|-----------------------------------------------------------------|
   E|-----------------------------------------------------------------|

   e|-----------------------------------------------------------------|
   B|-----------------3-------------------------------3---------------|
   G|-----------------5-------------------------------5---------------|
   D|-----------------4-------------------------------4---------------|
   A|-----------------------------------------------------------------|
   E|-----------------------------------------------------------------|
                                              Cos     I'm     the




  CHORUS


   C7
e|---------------------------------|---------------------------------|
B|---------1---------------1-------|---------1---------------1-------|
G|---------3---------------0-------|---------0---------------0---0---|
D|---------2-----------------------|---------------------------------|
A|---------------------------------|---------------------------------|
E|---------------------------------|---------------------------------|
   taxman                                yeah            I'm     the



   G7#9                    G7        D7
e|---------------------------------|---------------------------------|
B|---------------------------------|---------------------------------|
G|---------------------------------|-----------------------------7---|
D|---------------------------------|---------------------------------|
A|-5-------5-----------------------|---------------------------------|
E|-3---3---3-----------------------|---------------------------------|
  P.M.........^                                                  <
e|---------6-----------------------|---------------------------------|
B|---------6---------------6-------|---------3---------------3-------|
G|-------------------------4-------|---------5---------------5-------|
D|-------5-------------0-----------|---------4---------------4-------|
A|---------------------------------|---------------------------------|
E|---------------------------------|---------------------------------|
       taxman




e|---------------------------------|
B|---------------------------------|
G|---------7-----0-----5-B-----7---|
D|-0---------------7---------------|
A|---------------------------------|
E|---------------------------------|
                           Don't
                               ask
e|---------------------------------|
B|---------3---------------3-------|
G|---------5---------------5-------|
D|---------4---------------4-------|
A|---------------------------------|
E|---------------------------------|





  VERSE


   D7
e|---------------------------------|---------------------------------|
B|---------------------------------|---------------------------------|
G|---------7-----0-----5-B-----7---|---------7-----0-----5-----------|
D|-0---------------7---------------|-0---------------7---------------|
A|---------------------------------|---------------------------------|
E|---------------------------------|---------------------------------|
       me      what    I       want      it      for
e|---------------------------------|---------------------------------|
B|---------3---------------3-------|---------3---------------3-------|
G|---------5---------------5-------|---------5---------------5-------|
D|---------4---------------4-------|---------4---------------4-------|
A|---------------------------------|---------------------------------|
E|---------------------------------|---------------------------------|




   D7#9                    D7
e|---------------------------------|---------------------------------|
B|-6-------6---------------3-------|---------3---------------3-------|
G|-5-------5---------------5-------|---------5---------------5-------|
D|-4-----------------------4-------|---------4---------------4-------|
A|---------------------------------|---------------------5....-------|
E|---------------------------------|---------------------------------|
                                                             If  you
   Ah,     ah,         Mister  Wilson




e|---------------------------------|---------------------------------|
B|---------------------------------|---------------------------------|
G|---------7-----0-----5-B------7--|---------7-----0-----5-B-----7---|
D|-0---------------7---------------|-0---------------7---------------|
A|---------------------------------|---------------------------------|
E|---------------------------------|---------------------------------|
       don't   want    to      pay       some    more
e|---------------------------------|---------------------------------|
B|---------3---------------3-------|---------3---------------3-------|
G|---------5---------------5-------|---------5---------------5-------|
D|---------4---------------4-------|---------4---------------4-------|
A|---------------------------------|---------------------------------|
E|---------------------------------|---------------------------------|




   D7#9                    D7
e|---------------------------------|---------------------------------|
B|-6-------6---------------3-------|---------3---------------3-------|
G|-5-------5---------------5-------|---------5---------------5-------|
D|-4-------4---------------4-------|---------4---------------4-------|
A|---------------------------------|---------------------------------|
E|---------------------------------|---------------------------------|
                                                         Cos I'm the
   Ah,     ah,         Mister  Heath



   C7              C
e|---------------------------------|---------------------------------|
B|---------------------------------|---------------------------------|
G|---------5-----0-----3-B-4-H-5---|-x-------5-----0-----3-B-----5---|
D|-----------------5---------------|-----------------5---------------|
A|---------------------------------|---------------------------------|
E|---------------------------------|---------------------------------|
   taxman                                yeah            I'm     the
e|---------------------------------|---------------------------------|
B|---------1---------------1-------|---------1---------------1-------|
G|---------3---------------0-------|---------0---------------0-------|
D|---------2---------------2-------|---------2-----------------------|
A|---------------------------------|---------------------------------|
E|---------------------------------|---------------------------------|




   G7                                D7
e|---------------------------------|---------------------------------|
B|---------------------------------|-------------------------6-------|
G|---------------------------------|---------7-----0-----5-----------|
D|---------5-----0-----3-B--B--4---|-0--(0)----------5H7-------------|
A|-----------------3H5-------------|---------------------------------|
E|---------------------------------|---------------------------------|
       taxman
e|---------------------------------|---------------------------------|
B|---------6---------------6-------|---------3---------------3-------|
G|---------5---------------5-------|---------5---------------5-------|
D|---------4---------------4-------|---------4---------------4-------|
A|---------------------------------|---------------------5....-------|
E|---------------------------------|---------------------------------|





e|---------------------------------|
B|-------------------------6-------|
G|---------7-----0-----5-----------|
D|-----------------7---------------|
A|---------------------------------|
E|---------------------------------|
                           Now my
e|---------------------------------|
B|---------3---------------3-------|
G|---------5---------------5-------|
D|---------4---------------4-------|
A|---------------------5....-------|
E|---------------------------------|





  VERSE


   D7
e|---------------------------------|---------------------------------|
B|-------------------------6-------|-------------------------6-------|
G|---------7-----0-----5-----------|---------7-----0-----5-----------|
D|-----------------5H7-------------|-----------------5H7-------------|
A|---------------------------------|---------------------------------|
E|---------------------------------|---------------------------------|
       Advice          for     those     who     die
e|---------------------------------|---------------------------------|
B|---------3---------------3-------|---------3---------------3-------|
G|---------5---------------5-------|---------5---------------5-------|
D|---------4---------------4-------|---------4---------------4-------|
A|---------------------5....-------|---------------------5....-------|
E|---------------------------------|---------------------------------|




   D7#9                    D7
e|---------------------------------|---------------------------------|
B|-------------------------6-------|-------------------------6-------|
G|---------7-----0-----5-----------|---------7-----0-----5-----------|
D|-----------------5H7-------------|-----------------5H7-------------|
A|---------------------------------|---------------------------------|
E|---------------------------------|---------------------------------|
                                                             Declare
   Taxman
e|-6-------------------------------|---------------------------------|
B|-6-------6---------------3-------|---------3-----------------------|
G|-5-------5---------------5-------|---------5---------------5-------|
D|-4-------4---------------4-------|---------4---------------4-------|
A|---------------------5....-------|---------------------------------|
E|---------------------------------|---------------------------------|





e|---------------------------------|---------------------------------|
B|-------------------------6-------|-------------------------6-~~~---|
G|---------7-----------5-----------|---------7-----0-----5-----------|
D|---------------5H7---------------|-----------------5H7-------------|
A|---------------------------------|---------------------------------|
E|---------------------------------|---------------------------------|
       the     pennies         on        your    eyes
e|---------------------------------|---------------------------------|
B|---------3---------------3-------|---------3---------------3-------|
G|---------5---------------5-------|---------5---------------5-------|
D|---------4---------------4-------|---------4---------------4-------|
A|---------------------------------|---------------------------------|
E|---------------------------------|---------------------------------|




   D7#9                    D7
e|---------------------------------|---------------------------------|
B|-------------------------6-~~~---|---------------------------------|
G|---------7-----0-----5-----------|---------7-----0-----5-----------|
D|-----------------7---------------|(0)--------------7---------------|
A|---------------------------------|---------------------------------|
E|---------------------------------|---------------------------------|
                                                         Cos I'm the
   Taxman
e|(6)------------------------------|---------------------------------|
B|-6-------6---------------3-------|---------3---------------3-------|
G|-5-------5---------------5-------|---------5---------------5-------|
D|-4-------4---------------4-------|---------4---------------4-------|
A|---------------------------------|---------------------------------|
E|---------------------------------|---------------------------------|




   C7
e|---------------------------------|---------------------------------|
B|---------------------------------|---------------------------------|
G|---------5-----0-----3-B-----5---|---------5-----0-----3-B-4-P-(0)-|
D|-----------------5---------------|-----------------5---------------|
A|---------------------------------|---------------------------------|
E|---------------------------------|---------------------------------|
   taxman                                yeah            I'm     the
e|---------------------------------|---------------------------------|
B|---------1---------------1-------|---------1---------------1-------|
G|---------3---------------0-------|---------0---------------0-------|
D|---------2---------------2-------|---------2--------------(2)------|
A|---------------------------------|---------------------------------|
E|---------------------------------|---------------------------------|




   G7                                D7
e|---------------------------------|---------------------------------|
B|---------------------------------|---------------------------------|
G|---------------------------------|---------7-----0-----5-----------|
D|---------5-----0-----3-----B-4---|-0---------------5H7-------------|
A|-----------------5---------------|---------------------------------|
E|---------------------------------|---------------------------------|
       taxman,                                           and     you're
e|---------------------------------|---------------------------------|
B|---------6-------------3-6-P-(3)-|---------3--------------(3)------|
G|---------5-------------4-4-------|---------5---------------5-------|
D|---------4-----------------------|---------4---------------4-------|
A|---------------------------------|--------------------(5)----------|
E|---------------------------------|---------------------------------|




   F7
e|---------------------------------|---------------------------------|
B|6\4/6----6-----4/6---------------|4/6------4------4/6--------------|
G|---------5---------------5-------|-----------5-------------5-------|
D|---------------------------------|---------------------------------|
A|---------------------------------|---------------------------------|
E|---------------------------------|---------------------------------|
           working         for       no      one             but
e|---------------------------------|---------------------------------|
B|---------4---------------4-------|---------4---------------4-------|
G|---------2---------------2-------|---------2---------------2-------|
D|-------3---------------3---------|---------------------------------|
A|---------------------------------|---------------------------------|
E|---------------------------------|---------------------1-----------|




   D7
e|---------------------------------|
B|---------3---------------3-------|
G|---------5---------------5-------|
D|---------4---------------4-------|
A|---------------------------------|
E|---------------------------------|
   me
   Taxman!




  GUITAR SOLO



   e|-----------------------------------------------------------------|
   B|------------------------------------------------------6----8-----|
   G|-7----7----7-----7----7----7-----7----7----7-----7---------------|
   D|-0---------------0---------------0---------0---------------------|
   A|-----------------------------------------------------------------|
   E|-----------------------------------------------------------------|

   e|-----------------------------------------------------------------|
   B|-----------------3-------------------------------3---------------|
   G|-----------------5-------------------------------5---------------|
   D|-----------------4-------------------------------4---------------|
   A|-----------------------------------------5........---------------|
   E|-----------------------------------------------------------------|




      D7#9                                            D7
   e|---------------------------------10------------------------------|
   B|-8-B-9-R-8--6---B---------------6..------------------------------|
   G|-----------------------7-------------------------7---------------|
   D|-----------------------------------------------------------------|
   A|-----------------------------------------------------------------|
   E|-----------------------------------------------------------------|

   e|-----------------------------------------------------------------|
   B|-6---------------6-----------------------------------------------|
   G|-5---------------5-------------------------------5---------------|
   D|-4---------------4-----------------------------------------------|
   A|-----------------------------------------------------------------|
   E|-----------------------------------------------------------------|





   e|-----------------------------------------------------------------|
   B|-9-\-8---6-H-8---6-B-7-------------------------------------------|
   G|-------------------------7-~~~~----------7-~~~~------------------|
   D|-----------------------------------------------------------------|
   A|-----------------------------------------------------------------|
   E|-----------------------------------------------------------------|

   e|-----------------------------------------------------------------|
   B|-----------------3-------------------------------3---------------|
   G|-----------------5-------------------------------5---------------|
   D|-----------------4-------------------------------4---------------|
   A|-----------------------------------------------------------------|
   E|-----------------------------------------------------------------|





   e|-----------------------------------------------------------------|
   B|-----------------------------------------------------------------|
   G|-7---------------6H7P6\4-6-------4H6P4\2-4-------2H4P2P0--0H2H4--|
   D|-----------------------------------------------------------------|
   A|-----------------------------------------------------------------|
   E|-----------------------------------------------------------------|

   e|-----------------------------------------------------------------|
   B|-----------------3-------------------------------3---------------|
   G|-----------------5-------------------------------5---------------|
   D|-----------------4-------------------------------4---------------|
   A|-----------------------------------------------------------------|
   E|-----------------------------------------------------------------|





   e|-----------------------------------------------------------------|
   B|-----------------------------------------------------------------|
   G|-5---------5/7---------------------------7-~~~~------------------|
   D|-------------------------0---------------------------0-----------|
   A|-----------------------------------------------------------------|
   E|-----------------------------------------------------------------|

   e|-----------------------------------------------------------------|
   B|-------------------------------------------------3---------------|
   G|-----------------5-------------------------------5---------------|
   D|-----------------4-------------------------------4---------------|
   A|-----------------------------------------------------------------|
   E|-----------------------------------------------------------------|




      D7#9                                            D7
   e|-----------------------------------------------------------------|
   B|-8-B-R------6B7------------------6-----------6-------------------|
   G|-----------------------7-----------------7-----------------------|
   D|-----------------------------------------------------------------|
   A|-----------------------------------------------------------------|
   E|-----------------------------------------------------------------|

   e|-----------------------------------------------------------------|
   B|-6---------------6-------------------------------3---------------|
   G|-5---------------5-------------------------------5---------------|
   D|-4-----------------------------------------------4---------------|
   A|-----------------------------------------------------------------|
   E|-----------------------------------------------------------------| .....
Suggest correction
Creating personal tab
Creating personal tab
You can edit any tab online and save it as your Personal.

You can edit, replace or remove any tab part or add personal notes – all changes will be seen only by you.

Personal tabs can be accessed anytime from any device, even offline.
Learn more »
comments
print report bad tab
guest
You may want to rate the tab now too:
select rating
Wanna post a correction for this tab? Suggest correction