Oops, an error
Loading. Please wait.

The Ballad Of John And Yoko Bass Tab

version 3
version 3

Whole song

Interactive

12,405 views 36 this week
2 commentsread comments
1 2 3 4 5
accurate
x 7
add to favorites
launch autoscroll
font size
0
reset
guitar tuner
Tab Pro tools
  • play this tab
  • loop segment
  • change instrument
  • show fretboard
  • metronome
Autoscroll
slow
fast
+/-
esc
set tempo
stop
Contributor
Difficulty
Artist: The Beatles
Song: The Ballad of John and Yoko
Tuning: Standard (EADG)

This is my first tab, so I thought I'd try an easy one.
I think it's pretty close, after listening to the song 1,000,000 times.

G|-----------|
D|-----------|
A|-----2-4-2-| x10
E|-0-4-------|

G|-----------|
D|-----2-4-2-|
A|-0-4-------| x2
E|-----------|

G|-----------|
D|-----------|
A|-----2-4-2-| x2
E|-0-4-------|

G|-----------|
D|---1-4-6-4-|
A|-2---------| x2
E|-----------|

G|-----------|
D|-----------|
A|-----2-4-2-| x10
E|-0-4-------|

G|-----------|
D|-----2-4-2-|
A|-0-4-------| x2
E|-----------|

G|-----------|
D|-----------|
A|-----2-4-2-| x2
E|-0-4-------|

G|-----------|
D|---1-4-6-4-|
A|-2---------| x2
E|-----------|

G|-----------|
D|-----------|
A|-----2-4-2-| x10
E|-0-4-------|

G|-----------|
D|-----2-4-2-|
A|-0-4-------| x2
E|-----------|

G|-----------|
D|-----------|
A|-----2-4-2-| x2
E|-0-4-------|

G|-----------|
D|---1-4-6-4-|
A|-2---------| x2
E|-----------|

G|-----------|
D|-----------|
A|-----2-4-2-| x2
E|-0-4-------|

G|-----------|
D|-----2-4-2-|
A|-0-4-------| x6
E|-----------|

G|-----------|
D|---1-4-6-4-|
A|-2---------| x1
E|-----------|

G|-----------|
D|---1-4-----|
A|-2---------| x1
E|-----------|

G|-----------|
D|-----------|
A|-----2-4-2-| x8
E|-0-4-------|

G|-----------|
D|-----2-4-2-|
A|-0-4-------| x2
E|-----------|

G|-----------|
D|-----------|
A|-----2-4-2-| x2
E|-0-4-------|

G|-----------|
D|---1-4-6-4-|
A|-2---------| x2
E|-----------|

G|-----------|
D|-----------|
A|-----2-4-2-| x10
E|-0-4-------|

G|-----------|
D|-----2-4-2-|
A|-0-4-------| x2
E|-----------|

G|-----------|
D|-----------|
A|-----2-4-2-| x2
E|-0-4-------|

G|-----------|
D|---1-4-6-4-|
A|-2---------| x2
E|-----------|

G|-----------|
D|-----------|
A|-----2-4-2-| x2
E|-0-4-------|

G|-----------|
D|---1-4-6-4-|
A|-2---------| x2
E|-----------|

G|-----------|
D|-----------|
A|-----2-4-2-| x2
E|-0-4-------|

G|-----------------------|
D|---4-----4-1-2-------2-|
A|-2---0-2-------2-2-2---| x1
E|-----------------------|
[I could've messed this Outro part up. Although it does sound good to me.]

That's the entire song in the most simple way I could think to write it.

*Please rate this tab.*

-FunkBassAddiction
(I'm aware that my name says FunkBassAddicti. It's all that would fit,
and I liked the way it sounded. Haha)
comments
print report bad tab
2 comments total.
0 reply
truti wrote on July 27 2009, 09:42 pm

really liked your tab, good job!

0 reply
DanelectroKing wrote on July 9 2011, 12:49 pm

sick tab brosef!!

I want to post or [tab]
guest
You may want to rate the tab now too:
select rating
Please do not post tabs as comments. Select "correction" instead!