Oops, an error
Loading. Please wait.

The Ballad Of John And Yoko bass

version 3
version 3

Whole song

Interactive

914 views 9 this week
no commentswrite comment
1 2 3 4 5
1 last vote to show rating
add to favorites
×
Save as Personal and add changes to this tab that will be seen only by you. Learn more ›
×
You can save this tab as Personal to edit and correct it or add notes. All changes will be seen only by you. Learn more »
launch autoscroll
font size
0
reset
guitar tuner
backing track
0:00
0:00
edit
Autoscroll
slow
fast
+/-
esc
set tempo
stop
Author
Difficulty
About this tab version
Complete song here... 100% accurate.. Was this info helpful? Yes No
The Beatles 
(Abbey Road)
The ballad of John and Yoko

   1973 Sony/ATV Songs LLG

Bassist : Paul McCartney   

Bass Tabs


Tuning : E A D G 
Tempo  : 137 bpm

Intro/Verse1: 00:01
G|-----------|-
D|-----------|-
A|-----2-4-2-|- x8
E|-0-4-------|-
Standing in the dock at Southampton,
Trying to get to Holland or France.
The man in the mac said, "You've got to turn back".
You know they didn't even give us a chance.

Chorus1: 00:16
G|-----------|-
D|-----2-4-2-|-
A|-0-4-------|- x2
E|-----------|-
Christ you know it ain't easy,
You know how hard it can be.
                                              play x2
G|-----------|  |-----------||-----------||-----------|-
D|-----------|  |---1-4-6-4-||-----2-4-2-||-----------|-
A|-----2-4-2-|x2|-2---------||-0-4-------||-----2-4-2-|-
E|-0-4-------|  |-----------||-----------||-0-4-------|-
The way things are going
They're going to crucify me.

Verse2: 00:32
G|-----------|-
D|-----------|-
A|-----2-4-2-|- x8
E|-0-4-------|-
Finally made the plane into Paris,
Honey mooning down by the Seine.
Peter Brown called to say,
"You can make it O.K.,
You can get married in Gibraltar, near Spain".

Chorus2: 00:44
G|-----------|-
D|-----2-4-2-|-
A|-0-4-------|- x2
E|-----------|-
Christ you know it ain't easy,
You know how hard it can be.
                                              play x2
G|-----------|  |-----------||-----------||-----------|-
D|-----------|  |---1-4-6-4-||-----2-4-2-||-----------|-
A|-----2-4-2-|x2|-2---------||-0-4-------||-----2-4-2-|-
E|-0-4-------|  |-----------||-----------||-0-4-------|-
The way things are going
They're going to crucify me.


Verse3: 01:00
G|-----------|-
D|-----------|-
A|-----2-4-2-|- x8
E|-0-4-------|-
Drove from Paris to the Amsterdam Hilton,
Talking in our beds for a week.
The newspapers said, "Say what you doing in bed?"
I said, "We're only trying to get us some peace".

Chorus3: 01:34
G|-----------|-
D|-----2-4-2-|-
A|-0-4-------|- x2
E|-----------|-
Christ you know it ain't easy,
You know how hard it can be.
                                              play x2
G|-----------|  |-----------||-----------||-----------|-
D|-----------|  |---1-4-6-4-||-----2-4-2-||-----------|-
A|-----2-4-2-|x2|-2---------||-0-4-------||-----2-4-2-|-
E|-0-4-------|  |-----------||-----------||-0-4-------|-

Bridge: 01:28
G|-----------|-
D|-----2-4-2-|-
A|-0-4-------|- x8
E|-----------|-
Saving up your money for a rainy day,
Giving all your clothes to charity.
Last night the wife said,
"Oh boy, when you're dead
G|-----------||-----------|-
D|---1-4-6-4-||---1-4-----|-
A|-2---------||-2---------|-
E|-----------||-----------|-
You don't take nothing with you
But your soul - think!"
G|-----------|-
D|-----2-4-2-|-
A|-0-4-------|- x8
E|-----------|-
Made a lightning trip to Vienna,
eating chocolate cake in a bag.
The newspapers said, "She's gone to his head,
They look just like two gurus in drag".

Chorus3: 01:56
G|-----------|-
D|-----2-4-2-|-
A|-0-4-------|- x2
E|-----------|-
Christ you know it ain't easy,
You know how hard it can be.
                                              play x2
G|-----------|  |-----------||-----------||-----------|-
D|-----------|  |---1-4-6-4-||-----2-4-2-||-----------|-
A|-----2-4-2-|x2|-2---------||-0-4-------||-----2-4-2-|-
E|-0-4-------|  |-----------||-----------||-0-4-------|-

Verse4:
G|-----------|-
D|-----------|-
A|-----2-4-2-|- x8
E|-0-4-------|-
Caught an early plane back to London.
Fifty acorns tied in a sack.
The men from the press said, "We wish you success,
It's good to have the both of you back".

Chorus4: 01:56
G|-----------|-
D|-----2-4-2-|-
A|-0-4-------|- x2
E|-----------|-
Christ you know it ain't easy,
You know how hard it can be.
                                              play x1
G|-----------|  |-----------||-----------||-----------|-
D|-----------|  |---1-4-6-4-||-----2-4-2-||-----------|-
A|-----2-4-2-|x2|-2---------||-0-4-------||-----2-4-2-|-
E|-0-4-------|  |-----------||-----------||-0-4-------|-
The way things are going
They're going to crucify me.
                                              play x2
G|-----------|  |-----------||-----------||-----------|-
D|-----------|  |---1-4-6-4-||-----2-4-2-||-----------|-
A|-----2-4-2-|x1|-2---------||-0-4-------||-----2-4-2-|-
E|-0-4-------|  |-----------||-----------||-0-4-------|-
The way things are going
They're going to crucify me.


Outro: 
G|------------------------|-
D|----4-----------------2-|-
A|-2-2--0-2--2-4-2--------|- x1
E|-----------------4-0----|-



End : 03:00
Suggest correction
Creating personal tab
Creating personal tab
You can edit any tab online and save it as your Personal.

You can edit, replace or remove any tab part or add personal notes – all changes will be seen only by you.

Personal tabs can be accessed anytime from any device, even offline.
Learn more »
Give kudos to tab author, rate the tab!
1 2 3 4 5
comments
print report bad tab
guest
You may want to rate the tab now too:
select rating
Wanna post a correction for this tab? Suggest correction