Oops, an error
Loading. Please wait.

The Hippy Hippy Shake Bass Tab

6,252 views 6 this week
no commentswrite comment
1 2 3 4 5
please rate
add to favorites
launch autoscroll
font size
0
reset
guitar tuner
Tab Pro tools
  • play this tab
  • loop segment
  • change instrument
  • show fretboard
  • metronome
×
Best way to learn
"The Hippy Hippy Shake"
Autoscroll
slow
fast
+/-
esc
set tempo
stop
Contributor
THE HIPPY HIPPY SHAKE

Written by Chan Romero

Pop Go The Beatles #7 (July 30, 1963)

VERSE
  t=133
G|---------------------------------|---------------------------------|
D|---------------------------------|---------------------------------|
A|---------------------------------|---------------------------------|
E|---------------------------------|---------------------------------|
                                             For   good  -  ness

G|---------------------------------|---------------------------------|
D|---------7---------------7-------|---------7-----------------------|
A|-0---------------0---------------|-0---------------0-------0-------|
E|---------------------------------|---------------------------------|
  sake                                   I  got the  hippy   hippy

G|---------------------------------|---------------------------------|
D|---------------------------------|---------------------------------|
A|---------7-------7-------7-------|/7-------7-------7-------7-------|
E|-0-------------------------------|---------------------------------|
  shake                                                 I've got to

G|---------------------------------|---------------------------------|
D|---------7---------------7-------|---------7---------------7-------|
A|-0---------------0---------------|-0-------------------------------|
E|---------------------------------|---------------------------------|
  shake                                 Who     the  hippy   hippy 

G|---------------------------------|---------------------------------|
D|-9-------9---9---9---9---9---9---|-9-------------------------------|
A|---------------------------------|---------------------------------|
E|---------------------------------|---------------------------------|
  shake                                 Who      I  can't   keep

VERSE

G|---------------------------------|---------------------------------|
D|---------------------------------|---------------------------------|
A|---------7-------7-------7-------|/7-------7-------7-------7-------|
E|-0-------------------------------|---------------------------------|
  still                                     With the hippy   hippy

G|---------------------------------|---------------------------------|
D|---------------------------------|---------------------------------|
A|/7-------7-------7-------7-------|-7-------7-------7-------7-------|
E|---------------------------------|---------------------------------|
  shake                                                  I  get  my

G|---------------------------------|---------------------------------|
D|---------7---7-----------7---7---|---------7---7-----------7-------|
A|-0---------------0---------------|-0---------------0---------------|
E|---------------------------------|---------------------------------|
      fill                                  With the hippy   hippy

G|---------------------------------|---------------------------------|
D|---------------------------------|---------------------------------|
A|/7-------7-------7-------7-------|/7-------7-------7-------7-------|
E|---------------------------------|---------------------------------|
  shake                                                  Ooh my

G|---------------------------------|---------------------------------|
D|-9-------9-------9---9---9---9---|-7-------------------------------|
A|---------------------------------|---------------------------------|
E|---------------------------------|---------------------------------|
  baby                                   Oh     the  hippy   hippy

G|---------------------------------|---------------------------------|
D|---------------------------------|-9---9---9-----9-9-----9-9-------|
A|-7-------7-------7-------7-------|---------------------------------|
E|---------------------------------|---------------------------------|
  shake                             Well            now     you

BRIDGE

G|---------------------------------|---------------------------------|
D|-------------------------5---4---|-------------------------5---4---|
A|-7-------------------7-----------|-7-------------------7-----------|
E|---------------------------------|---------------------------------|
 shake it  to the left             Shake it  to the right

G|---------------------------------|---------------------------------|
D|---------------------------------|---------------------------------|
A|-7-------------------------------|-7-------5-------4---------------|
E|---------------------------------|-------------------------7-------|
   Do the hippy shake shake    With  all of you might            Then

VERSE

G|---------------------------------|---------------------------------|
D|---------7---------------7-------|---------7---------------7-------|
A|-0---------------0---------------|-0---------------0---------------|
E|---------------------------------|---------------------------------|
  you shake                                         Who          yes

G|---------------------------------|---------------------------------|
D|---------------------------------|---------------------------------|
A|-7-------7-------7-------7-------|/7-------7------/7------/7-------|
E|---------------------------------|---------------------------------|
  you shake                                              Ooh my

G|---------------------------------|---------------------------------|
D|-9-------9-------9-------9-------|-7-------------------------------|
A|---------------------------------|---------------------------------|
E|---------------------------------|---------------------------------|
  baby                                   Ow     the  hippy   hippy

G|---------------------------------|---------------------------------|
D|---------------------------------|-9-----9-9-----9-9-----9-9---9---|
A|-7-------7-------7-------7-------|---------------------------------|
E|---------------------------------|---------------------------------|
  shake                Aah!                                  Ow!

GUITAR SOLO

G|---------------------------------|---------------------------------|
D|---------------------------------|-----------------------------9---|
A|-7------/7------/7-------7-------|/7-------7------/7-------7-------|
E|---------------------------------|---------------------------------|

G|---------------------------------|---------------------------------|
D|---------------------------------|---------------------------------|
A|-7-------7------/7-------7-------|-7-------5-------4---------------|
E|---------------------------------|-------------------------7-------|

G|---------------------------------|---------------------------------|
D|---------7---------------5---7---|---------7---------------5-------|
A|-0---------------7---------------|-0---------------7---------------|
E|---------------------------------|---------------------------------|

G|---------------------------------|---------------------------------|
D|---------------------------------|---------------------------------|
A|---------7---------------5-------|---------7---------------5-------|
E|-0-----------7-------------------|-0---------------5---------------|

G|---------------------------------|---------------------------------|
D|---------9---------------7-------|---------7---------------5-------|
A|-------------9---9---------------|-----------------7---------------|
E|-7-------------------------------|-5-------------------------------|

G|---------------------------------|---------------------------------|
D|---------------------------------|-9-----9-9-----9-9-----9-9-------|
A|-7-------7-------7-------7-------|---------------------------------|
E|---------------------------------|---------------------------------|
                               Well                 now         you

BRIDGE

G|---------------------------------|---------------------------------|
D|-------------------------5---4---|-------------------------5---4---|
A|-7-------------------7-----------|-7-------------------7-----------|
E|---------------------------------|---------------------------------|
 shake it  to the left             Shake it  to the right

G|---------------------------------|---------------------------------|
D|---------------------------------|---------------------------------|
A|-7-------------------------------|-7-------5-------4---------------|
E|---------------------------------|-------------------------7-------|
   Do the hippy shake shake    With  all of you might            Then

VERSE

G|---------------------------------|---------------------------------|
D|---------7---------------7-------|---------7-------7-------7-------|
A|-0---------------0---------------|-0-------------------------------|
E|---------------------------------|---------------------------------|
  you    shake                                      Who          yes

G|---------------------------------|---------------------------------|
D|---------------------------------|---------------------------------|
A|-7-------7-------7-------7-------|-7-------7-------7-------7-------|
E|---------------------------------|---------------------------------|
     you shake                                           Ooh my

G|---------------------------------|---------------------------------|
D|-9-------9-------9-------9-------|-7-------------------------------|
A|---------------------------------|---------------------------------|
E|---------------------------------|---------------------------------|
  baby                                  Who     the  hippy   hippy

OUTRO

G|---------------------------------|---------------------------------|
D|---------------------------------|-9-------------------------------|
A|-7-------7-------7-------7-------|---------------------------------|
E|---------------------------------|---------------------------------|
  shake                                  Ow     the  hippy   hippy

G|---------------------------------|---------------------------------|
D|---------------------------------|-9-------------------------------|
A|-7-------7-------7-------7-------|---------------------------------|
E|---------------------------------|---------------------------------|
  shake                                 Yea     the  hippy   hippy

G|---------------------------------|-------------9-------------------|
D|-----6-----------7-------9-------|-----6---9-----------------------|
A|-7-------------------------------|-7-----------------------7-------|
E|---------------------------------|---------------------------------|
  shake        oh yeah
comments
We did not receive enough feedback on this tab! Please rate:
print report bad tab
1 2 3 4 5
I want to post or [tab]
guest
You may want to rate the tab now too:
select rating
Please do not post tabs as comments. Select "correction" instead!