Oops, an error
Loading. Please wait.

The Sheik Of Araby bass

1,352 views 1 this week
no commentswrite comment
1 2 3 4 5
1 last vote to show rating
add to favorites
×
Save as Personal and add changes to this tab that will be seen only by you. Learn more ›
×
You can save this tab as Personal to edit and correct it or add notes. All changes will be seen only by you. Learn more »
launch autoscroll
font size
0
reset
guitar tuner
edit
Autoscroll
slow
fast
+/-
esc
set tempo
stop
Author
The Sheik Of Araby
The Beatles
Written by Harry Smith and Francis Wheeler

A song from the Anthology, they played it at the Decca audition.

Intro:
G|------- ------- ------- -------|------- ------- ------- -------|
D|7-------7-------7-------7---7--|7-------7-------7-------7------|
A|-------------------------------|-------------------------------|
E|-------------------------------|-------------------------------|



G|------- ------- ------- -------|------- ------- ------- -------|
D|-------------------------------|7---------------7--------------|
A|7-----------7---7-------7------|-------------------------------|
E|-------------------------------|-------------------------------|
                                          Well,   I'm     the

Verse:
G|------- ------- ------- -------|------- ------- ------- -------|
D|----------------5--------------|----------------4--------------|
A|--------7---------------7------|6-------6---------------6------|
E|8------------------------------|-------------------------------|
  sheik                   of      A           -           ra-


G|------- ------- ------- -------|------- ------- ------- -------|
D|----------------7--------------|-------------------------------|
A|5-------8---------------8------|5-----------5-----------5------|
E|-------------------------------|-------------------------------|
  by,                                                     Your


G|------- ------- ------- -------|------- ------- ------- -------|
D|--------2-------3-------4------|5-------3-------2--------------|
A|5------------------------------|------------------------5------|
E|-------------------------------|-------------------------------|
  love                    be  -   longs                   to


G|------- ------- ------- -------|5------ ------- ------- -------|
D|----------------5--------------|--------7-------5--------------|
A|--------7---------------7------|------------------------7------|
E|8------------------------------|-------------------------------|
  me                                          Well,      at


G|------- ------- ------- -------|------- ------- ------- -------|
D|----------------5--------------|----------------4--------------|
A|--------7---------------7------|6-------6---------------6------|
E|8------------------------------|-------------------------------|
  nights                  when    you're                  a-


G|------- ------- ------- -------|------- ------- ------- -------|
D|----------------7--------------|-------------------------------|
A|5-------8---------------8------|5-----------5-----------5------|
E|-------------------------------|-------------------------------|
  sleep,                                                  In-


G|------- ------- ------- -------|------- ------- ------- -------|
D|--------2-------3-------4------|5-------3-------2--------------|
A|5------------------------------|------------------------5------|
E|-------------------------------|-------------------------------|
  to                      your    tent                    I'll


G|------- ------- ------- -------|------- ------- ------- -------|
D|-------------------------------|5------------------------------|
A|3-------3-------3-------3------|-------------------------------|
E|-------------------------------|-------------------------------|
  creep                                                   The

Verse:
G|------- ------- ------- -------|------- ------- ------- -------|
D|----------------5--------------|----------------4--------------|
A|--------7---------------7------|6-------6---------------6------|
E|8------------------------------|-------------------------------|
  stars                   that    shine                   a-


G|------- ------- ------- -------|------- ------- ------- -------|
D|----------------7--------------|-------------------------------|
A|5-------8---------------8------|5-----------5-----------5------|
E|-------------------------------|-------------------------------|
  bove                                                    Will


G|------- ------- ------- -------|------- ------- ------- -------|
D|--------2-------3-------4------|5-------5-------5--------------|
A|5------------------------------|------------------------8------|
E|-------------------------------|-------------------------------|
  light                   our     way                     to


G|------- ------- ------- -------|------- ------- ------- -------|
D|-------------------------------|-------------------------------|
A|7-------7-------7-------7------|7-------7-------7-------7------|
E|-------------------------------|-------------------------------|
  love,                                                   You


G|------- ------- ------- -------|------- ------- ------- -------|
D|7-------7-------7-------7------|7-------7-------7--------------|
A|-------------------------------|------------------------7------|
E|-------------------------------|-------------------------------|
  rule                    this    world                   with


G|------- ------- ------- -------|------- ------- ------- -------|
D|-------------------------------|-------------------------------|
A|5-------5-------5-------5------|5-------5-------5-------5------|
E|-------------------------------|-------------------------------|
  me,                                                     The


G|------- ------- ------- -------|------- ------- ------- -------|
D|-------------------------------|5-------5-------5-------5------|
A|5-------5-------5-------5------|-------------------------------|
E|-------------------------------|-------------------------------|
  sheik                   of      A           -           ra-


G|------- ------- ------- -------|------- ------- ------- -------|
D|7-------7-------7-------7------|5------------------------------|
A|-------------------------------|-------------------------------|
E|-------------------------------|-------------------------------|
  by                                      Well,   I'm     the

Verse:
G|------- ------- ------- -------|------- ------- ------- -------|
D|----------------5--------------|----------------4--------------|
A|--------7---------------7------|6-------6---------------6------|
E|8------------------------------|-------------------------------|
  sheik                   of      A           -           ra-


G|------- ------- ------- -------|------- ------- ------- -------|
D|----------------7--------------|-------------------------------|
A|5-------8---------------8------|5-----------5-----------5------|
E|-------------------------------|-------------------------------|
  by,                                                     Your


G|------- ------- ------- -------|------- ------- ------- -------|
D|--------2-------3-------4------|5-------3-------2--------------|
A|5------------------------------|------------------------5------|
E|-------------------------------|-------------------------------|
  love                    be  -   longs                   to


G|------- ------- ------- -------|5------ ------- ------- -------|
D|----------------5--------------|--------7-------5--------------|
A|--------7---------------7------|------------------------7------|
E|8------------------------------|-------------------------------|
  me                                          Well,       at


G|------- ------- ------- -------|------- ------- ------- -------|
D|----------------5--------------|----------------4--------------|
A|--------7---------------7------|6-------6---------------6------|
E|8------------------------------|-------------------------------|
  nights                  when    you're                  a-


G|------- ------- ------- -------|------- ------- ------- -------|
D|----------------7--------------|-------------------------------|
A|5-------8---------------8------|5-----------5-----------5------|
E|-------------------------------|-------------------------------|
  sleep,                                                  In-


G|------- ------- ------- -------|------- ------- ------- -------|
D|--------2-------3-------4------|5-------3-------2--------------|
A|5------------------------------|------------------------5------|
E|-------------------------------|-------------------------------|
  to                      your    tent                    I'll


G|------- ------- ------- -------|------- ------- ------- -------|
D|----------------5--------------|5------------------------------|
A|--------7---------------7------|-------------------------------|
E|8------------------------------|-------------------------------|
  creep                                                   The

Verse:
G|------- ------- ------- -------|------- ------- ------- -------|
D|----------------5--------------|----------------4--------------|
A|--------7---------------7------|6-------6---------------6------|
E|8------------------------------|-------------------------------|
  stars                   that    shine                   a-


G|------- ------- ------- -------|------- ------- ------- -------|
D|----------------7--------------|-------------------------------|
A|5-------8---------------8------|5-----------5-----------5------|
E|-------------------------------|-------------------------------|
  bove                                                    Will


G|------- ------- ------- -------|------- ------- ------- -------|
D|--------2-------3-------4------|5-------5-------5--------------|
A|5------------------------------|------------------------8------|
E|-------------------------------|-------------------------------|
  light                   our     way                     to


G|------- ------- ------- -------|------- ------- ------- -------|
D|-------------------------------|-------------------------------|
A|7-------7-------7-------7------|7-------7-------7-------7------|
E|-------------------------------|-------------------------------|
  love,                                                   You


G|------- ------- ------- -------|------- ------- ------- -------|
D|7-------7-------7-------7------|7-------7-------7--------------|
A|-------------------------------|------------------------7------|
E|-------------------------------|-------------------------------|
  rule                    this    world                   with


G|------- ------- ------- -------|------- ------- ------- -------|
D|-------------------------------|-------------------------------|
A|5-------5-------5-------5------|5-------5-------5-------5------|
E|-------------------------------|-------------------------------|
  me,                                                     The


G|------- ------- ------- -------|------- ------- ------- -------|
D|-------------------------------|5-------5-------5-------5------|
A|5-------5-------5-------5------|-------------------------------|
E|-------------------------------|-------------------------------|
  sheik                   of      A           -           ra-


G|------- ------- ------- -------|------- ------- ------- -------|
D|7-------7-------7-------7------|7------------------------------|
A|-------------------------------|-------------------------------|
E|-------------------------------|-------------------------------|
  by                                      Well,   I'm     the

Outro:
G|------- ------- ------- -------|------- ------- ------- -------|
D|-------------------------------|5-------5-------5-------5------|
A|5-------5-------5-------5------|-------------------------------|
E|-------------------------------|-------------------------------|
  sheik                   of                          A - ra-


G|------- ------- ------- -------|------- ------- ------- -------|
D|7-------7-------7-------7------|7------------------------------|
A|-------------------------------|-------------------------------|
E|-------------------------------|-------------------------------|
  by                                      Well,   I'm     the


G|------- ------- ------- -------|------- ------- ------- -------|
D|-------------------------------|5-------5-------5-------5------|
A|5-------5-------5-------5------|-------------------------------|
E|-------------------------------|-------------------------------|
  sheik                   of                  A     -     ra-


G|------- ------- ------- -------|------- ------- ------- -------|
D|----------------5--------------|-------------------------------|
A|--------7---------------7------|-------------------------------|
E|8------------------------------|8-----------8------------------|
  by

Please e-mail me for any corrections, or write a comment.

            
            
Suggest correction
Creating personal tab
Creating personal tab
You can edit any tab online and save it as your Personal.

You can edit, replace or remove any tab part or add personal notes – all changes will be seen only by you.

Personal tabs can be accessed anytime from any device, even offline.
Learn more »
Give kudos to tab author, rate the tab!
1 2 3 4 5
comments
print report bad tab
guest
You may want to rate the tab now too:
select rating
Wanna post a correction for this tab? Suggest correction