Oops, an error
Loading. Please wait.

Three Cool Cats bass

2,250 views 1 this week
no commentswrite comment
1 2 3 4 5
x 3
add to favorites
×
Save as Personal and add changes to this tab that will be seen only by you. Learn more ›
×
You can save this tab as Personal to edit and correct it or add notes. All changes will be seen only by you. Learn more »
launch autoscroll
font size
0
reset
guitar tuner
edit
Autoscroll
slow
fast
+/-
esc
set tempo
stop
Author
Three Cool Cats
The Beatles
Written by Jerry Leiber and Mike Stoller.

A song from their early years.

Refrain:
G|------- ------- ------- -------|------- ------- ------- -------|
D|-------------------------------|-------------------------------|
A|9---------------------------6--|7-----------7-----------7------|
E|----------------7--------------|----------------7--------------|
  Three           cool        cats,


G|------- ------- ------- -------|------- ------- ------- -------|
D|-------------------------------|-------------------------------|
A|9-----------9---------------6--|7-----------7-----------7------|
E|----------------7--------------|----------------7--------------|
  three           cool        cats                            Are

Verse:
G|------- ------- ------- -------|------- ------- ------- -------|
D|-------------------------------|-------------------------------|
A|9-----------9---------------6--|7-----------7-------6---7---8--|
E|----------------7--------------|----------------7--------------|
  hunting down the corner in  a   beat up     car,
  Ooooooooooooooooooooooooooooaaaaaaaaaaaah

G|------- ------- ------- -------|------- ------- ------- -------|
D|-------------------------------|-------------------------------|
A|9-----------9---------------6--|7-----------7-----------7------|
E|----------------7--------------|----------------7--------------|
  Splitting up a  lift        of  candy       bar,
  Ooooooooooooooooooooooooooooaaaaaaaaaaaah

G|------- ------- ------- -------|------- ------- ------- -------|
D|-------------------------------|-------------------------------|
A|9-----------9---------------6--|7-----------7-------6---7---8--|
E|----------------7--------------|----------------7--------------|
  talking all a - bout    how     sharp   they are
  Ooooooooooooooooooooooooooooaaaaaaaaaaaah
Refrain:
G|------- ------- ------- -------|------- ------- ------- -------|
D|-------------------------------|-------------------------------|
A|9-----------9---------------6--|7-----------7-----------7------|
E|----------------7--------------|----------------7--------------|
  Three           cool        cats,


G|------- ------- ------- -------|------- ------- ------- -------|
D|-------------------------------|-------------------------------|
A|9-----------9---------------6--|7-----------7-----------7------|
E|----------------7--------------|----------------7--------------|
  three           cool        chicks                          Are

Verse:
G|------- ------- ------- -------|------- ------- ------- -------|
D|-------------------------------|-------------------------------|
A|9-----------9---------------6--|7-----------7-------6---7---8--|
E|----------------7--------------|----------------7--------------|
  walking down the street,        swinging their hips,
  Ooooooooooooooooooooooooooooaaaaaaaaaaaah

G|------- ------- ------- -------|------- ------- ------- -------|
D|-------------------------------|-------------------------------|
A|9---------------------------6--|7-----------7-----------7------|
E|----------------7--------------|----------------7--------------|
  splitting up a  bag     of  po- ta- to      chips,          And
  Ooooooooooooooooooooooooooooaaaaaaaaaaaah

G|------- ------- ------- -------|------- ------- ------- -------|
D|-------------------------------|-------------------------------|
A|9---------------------------6--|7-----------7-----------7---8--|
E|----------------7--------------|----------------7---0----------|
  three   cool    cats    did     three big   flips   For
  Ooooooooooooooooooooooooooooaaaaaaaaaaaah
Refrain:
G|------- ------- ------- -------|------- ------- ------- -------|
D|-------------------------------|-------------------------------|
A|9-----------9---------------6--|7-----------7-----------7------|
E|----------------7--------------|----------------7--------------|
  three           cool        chicks                          yeah,


G|------- ------- ------- -------|------- ------- ------- -------|
D|-------------------------------|-------------------------------|
A|9-----------9---------------6--|7-----------7-----------7------|
E|----------------7--------------|----------------7--------------|
  three           cool        chicks                          Well,

Bridge:
G|------- ------- ------- -------|------- ------- ------- -------|
D|-------------------------------|-------------------------------|
A|7-----------7---7-------7------|5-----------5---5-------5------|
E|-------------------------------|-------------------------------|
  up   popped the first cool cat,     he said 'Now look at that,
  Oooooooooooooooooooooooooooooooooooooooooooooooo

G|------- ------- ------- -------|------- ------- ------- -------|
D|-------------------------------|-------------------------------|
A|-------------------------------|----------------9--------------|
E|8-----------8---8-------8------|7-------7---------------7------|
  man, do    you  see  what  I    see?'                       Well,
  Oooooooooooooooooooooooooooooooooooooooooooooooo

G|------- ------- ------- -------|------- ------- ------- -------|
D|-------------------------------|-------------------------------|
A|7-----------7---7-------7------|5-----------5---5-------5------|
E|-------------------------------|-------------------------------|
  I    want  that middle     chick,
  Oooooooooooooooooooooooo            I want that little chick!

G|------- ------- ------- -------|------- ------- ------- -------|
D|-------------------------------|-------------------------------|
A|-------------------------------|----------------9--------------|
E|8-----------8---8-------8------|7-------7---------------7------|
                                                      Well,
  Hey, man,  save one  chick for  me!         Yeah!
Refrain:
G|------- ------- ------- -------|------- ------- ------- -------|
D|-------------------------------|-------------------------------|
A|9-----------9---------------6--|7-----------7-------6---7---8--|
E|----------------7--------------|----------------7--------------|
  three           cool        chicks,


G|------- ------- ------- -------|------- ------- ------- -------|
D|-------------------------------|-------------------------------|
A|9-----------9---------------6--|7-----------7-----------7------|
E|----------------7--------------|----------------7--------------|
  three           cool        chicks                  Well,   they

Verse:
G|------- ------- ------- -------|------- ------- ------- -------|
D|-------------------------------|-------------------------------|
A|9---------------------------6--|7-----------7-----------7------|
E|----------------7--------------|----------------7--------------|
  looked  like    an- gels   from up  a   -   bove,           and
  Ooooooooooooooooooooooooooooaaaaaaaaaaaah

G|------- ------- ------- -------|------- ------- ------- -------|
D|-------------------------------|-------------------------------|
A|9-----------9------------------|7-------7---------------7------|
E|----------------7-------7------|----------------7--------------|
  three   cool    cats    really  fell in     love            But
  Ooooooooooooooooooooooooooooaaaaaaaaaaaah

G|------- ------- ------- -------|------- ------- ------- -------|
D|-------------------------------|-------------------------------|
A|9-----------9---------------6--|7-----------7-----------7------|
E|----------------7--------------|----------------7--------------|
  three   cool    chicks  made    three fools of
  Ooooooooooooooooooooooooooooaaaaaaaaaaaah
Refrain:
G|------- ------- ------- -------|------- ------- ------- -------|
D|-------------------------------|-------------------------------|
A|9-----------9---------------6--|7-----------7-------6---7---8--|
E|----------------7--------------|----------------7--------------|
  Three           cool        cats,


G|------- ------- ------- -------|------- ------- ------- -------|
D|-------------------------------|-------------------------------|
A|9-----------9---------------6--|7-----------7-----------7---8--|
E|----------------7--------------|----------------7--------------|
  three           cool        cats

Break (solo):
G|------- ------- ------- -------|------- ------- ------- -------|
D|-------------------------------|----------------9--------------|
A|9---------------------------6--|7-------7---------------7---8--|
E|----------------7--------------|--------------------7----------|



G|------- ------- ------- -------|------- ------- ------- -------|
D|-------------------------------|-------------------------------|
A|9-------9---9---------------6--|7---7---7---7-------6---7---8--|
E|----------------7---7---7------|----------------7--------------|



G|------- ------- ------- -------|------- ------- ------- -------|
D|-------------------------------|-------------------------------|
A|9-------9-------------------6--|7-------7----------------------|
E|----------------7-------7------|----------------0-------7------|



G|------- ------- ------- -------|------- ------- ------- -------|
D|-------------------------------|-------------------------------|
A|9-------9----------------------|7-------7----------------------|
E|----------------7-------7------|----------------7-------7------|
                                                              Well,

Bridge:
G|------- ------- ------- -------|------- ------- ------- -------|
D|-------------------------------|-------------------------------|
A|7-----------7---7-------7------|5-----------5---5-------5------|
E|-------------------------------|-------------------------------|
  up   popped the first cool cat,     he said 'Now look at that,
  Oooooooooooooooooooooooooooooooooooooooooooooooo

G|------- ------- ------- -------|------- ------- ------- -------|
D|-------------------------------|-------------------------------|
A|-------------------------------|-------------------------------|
E|8-----------8---8-------8------|7-------7-------7-------7------|
  man, do    you  see  what  I    see?'                       Well,
  Oooooooooooooooooooooooooooooooooooooooooooooooo

G|------- ------- ------- -------|------- ------- ------- -------|
D|-------------------------------|-------------------------------|
A|7-----------7---7-------7------|5-----------5---5-------5------|
E|-------------------------------|-------------------------------|
  I    want  that middle     chick,
  Oooooooooooooooooooooooo            I want that little chick!

G|------- ------- ------- -------|------- ------- ------- -------|
D|-------------------------------|-------------------------------|
A|-------------------------------|----------------9--------------|
E|8-------8-------8-------8------|7-------7---------------7------|

  Hey, man,  save one  chick for  me!         Yeah!
Refrain:
G|------- ------- ------- -------|------- ------- ------- -------|
D|-------------------------------|-------------------------------|
A|9-----------9---------------6--|7-------7---------------7------|
E|----------------7--------------|----------------7--------------|
  Three           cool        chicks,


G|------- ------- ------- -------|------- ------- ------- -------|
D|-------------------------------|-------------------------------|
A|9-------9----------------------|7-------7---------------7------|
E|----------------7-------7------|----------------7--------------|
  three           cool        chicks                          They

Verse:
G|------- ------- ------- -------|------- ------- ------- -------|
D|-------------------------------|-------------------------------|
A|9---------------------------6--|7-----------7-----------7------|
E|----------------7--------------|----------------7--------------|
  looked  like    an- gels   from up  a   -   bove,           and
  Ooooooooooooooooooooooooooooaaaaaaaaaaaah

G|------- ------- ------- -------|------- ------- ------- -------|
D|-------------------------------|-------------------------------|
A|9---------------------------6--|7-----------7-------6---7---8--|
E|----------------7--------------|----------------7--------------|
  three   cool    cats    really  fell in     love            But
  Ooooooooooooooooooooooooooooaaaaaaaaaaaah

G|------- ------- ------- -------|------- ------- ------- -------|
D|-------------------------------|-------------------------------|
A|9-------9----------------------|7-----------7-------6---7---8--|
E|----------------7-------7------|----------------7--------------|
  three   cool    chicks  made    three fools of
  Ooooooooooooooooooooooooooooaaaaaaaaaaaah
Refrain:
G|------- ------- ------- -------|------- ------- ------- -------|
D|-------------------------------|-------------------------------|
A|9---------------------------6--|7-----------7-----------7------|
E|----------------7--------------|----------------7--------------|
  Three           cool        cats,


G|------- ------- ------- -------|------- ------- ------- -------|
D|-------------------------------|-------------------------------|
A|9-----------9---------------6--|7-----------7-----------7------|
E|----------------7--------------|----------------7--------------|
  three           cool        cats,

Outro:
G|------- ------- ------- -------|------- ------- ------- -------|
D|-------------------------------|-------------------------------|
A|9---------------------------6--|7-------7---------------7------|
E|----------------7--------------|----------------7--------------|
  three           cool        cats,


G|--------------------------------------|
D|--------------------------------------|
A|9-------------------------------------|
E|--------------------------------------|
  Three


G|---------------------------------------------|
D|---------------------------------------------|
A|---------------------------------------------|
E|7--------------------------------------------|
  cool


G|---------------------------------------------|
D|----------------------------------------2----|
A|7--5--------------------------------2--------|
E|------7-------5--3--3-------0---3------------|
  cats

Please e-mail me for any corrections, or write a comment.

            
            
Suggest correction
Creating personal tab
Creating personal tab
You can edit any tab online and save it as your Personal.

You can edit, replace or remove any tab part or add personal notes – all changes will be seen only by you.

Personal tabs can be accessed anytime from any device, even offline.
Learn more »
Give kudos to tab author, rate the tab!
1 2 3 4 5
comments
print report bad tab
guest
You may want to rate the tab now too:
select rating
Wanna post a correction for this tab? Suggest correction