Oops, an error
Loading. Please wait.
We have an official Ticket To Ride tab made by UG professional guitarists. Check out the tab »
×

Ticket To Ride Tab

version 2
version 2

Whole song

Interactive

200,456 views 267 this week
8 commentsread comments
1 2 3 4 5
x 30
add to favorites
×
Save as Personal and add changes to this tab that will be seen only by you. Learn more ›
×
You can save this tab as Personal to edit and correct it or add notes. All changes will be seen only by you. Learn more »
save as personal
new!
launch autoscroll
font size
0
reset
how to read this tab
guitar tuner
backing track
0:00
0:00
Autoscroll
slow
fast
+/-
esc
set tempo
stop
Author
-----------------------------------------------------------
  THE BEATLES - TICKET TO RIDE (Lennon/McCartney) From HELP
                album. Released on August 6th 1965.
-----------------------------------------------------------
  Tabbed by:PJVillanueva

Lyrics

I think I'm gonna be sad,
I think it's today, yeah.
The girl that's driving me mad
Is going away.

She's got a ticket to ride,
She's got a ticket to ride,
She's got a ticket to ride,
But she don't care.

She said that living with me
Was bringing her down yeah.
For she would never be free
When I was around.

She's got a ticket to ride,
She's got a ticket to ride,
She's got a ticket to ride,
But she don't care.

I don't know why she's ridin' so high,
She ought to think twice,
She ought to do right by me.
Before she gets to saying goodbye,
She ought to think twice,
She ought to do right by me.

I think I'm gonna be sad,
I think it's today yeah.
The girl that's driving me mad
Is going away, yeah.

She's got a ticket to ride,
She's got a ticket to ride,
She's got a ticket to ride,
But she don't care.

I don't know why she's ridin' so high,
She ought to think twice,
She ought to do right by me.
Before she gets to saying goodbye,
She ought to think twice,
She ought to do right by me

She said that living with me,
Is bringing her down, yeah.
For she would never be free
When I was around.

Ah, she's got a ticket to ride,
She's got a ticket to ride,
She's got a ticket to ride,
But she don't care.

My baby don't care, my baby don't care.
My baby don't care, my baby don't care.
My baby don't care, my baby don't care.


  A 
e|--------0-------------------0--|--------0-------------------0--|
B|------------2---------0--------|------------2---------0--------|
G|2---------------2--------------|2---------------2--------------|
D|-------------------------------|-------------------------------|
A|-------------------------------|-------------------------------|
E|-------------------------------|-------------------------------|

e|--------0-------------------0--|--------0-------------------0--|
B|------------2---------0--------|------------2---------0--------|
G|2---------------2--------------|2---------------2--------------|
D|-------------------------------|-------------------------------|
A|-------------------------------|-------------------------------|
E|-------------------------------|-------------------------------|
                                                              I
e|-------------------------------|-------------------------------|
B|-------------------------------|-------------------------------|
G|-------------------------------|-------------------------------|
D|-------------------------------|-------------------------------|
A|0-----------0------------------|0-----------0------------------|
E|-------------------------------|-------------------------------|



e|--------0-------------------0--|--------0-------------------0--|
B|------------2---------0--------|------------2---------0--------|
G|2---------------2--------------|2---------------2--------------|
D|-------------------------------|-------------------------------|
A|-------------------------------|-------------------------------|
E|-------------------------------|-------------------------------|
  think   I'm     gonna   be  sad             I   think it's  today,
e|-------------------------------|-------------------------------|
B|-------------------------------|-------------------------------|
G|-------------------------------|-------------------------------|
D|-------------------------------|-------------------------------|
A|0-----------0------------------|0-----------0------------------|
E|-------------------------------|-------------------------------|



e|--------0-------------------0--|--------0-------------------0--|
B|------------2---------0--------|------------2---------0--------|
G|2---------------2--------------|2---------------2--------------|
D|-------------------------------|-------------------------------|
A|-------------------------------|-------------------------------|
E|-------------------------------|-------------------------------|
                              yeah                            The
e|-------------------------------|-------------------------------|
B|-------------------------------|-------------------------------|
G|-------------------------------|-------------------------------|
D|-------------------------------|-------------------------------|
A|0-----------0------------------|0-----------0------------------|
E|-------------------------------|-------------------------------|



e|--------0-------------------0--|--------0-------------------0--|
B|------------2---------0--------|------------2---------0--------|
G|2---------------2--------------|2---------------2--------------|
D|-------------------------------|-------------------------------|
A|-------------------------------|-------------------------------|
E|-------------------------------|-------------------------------|
  girl    that's  driving me  mad             is  going   away
e|-------------------------------|-------------------------------|
B|-------------------------------|-------------------------------|
G|-------------------------------|-------------------------------|
D|-------------------------------|-------------------------------|
A|0-----------0------------------|0-----------0------------------|
E|-------------------------------|-------------------------------|


  Bm                              E
e|--------2-------0--------------|-------------------------------|
B|----------------------------3--|--------0-------------------0--|
G|----------------------4--------|------------1---------1--------|
D|-------------------------------|2---------------2--------------|
A|2------------------------------|-------------------------------|
E|-------------------------------|-------------------------------|

e|-------------------------------|-------------------------------|
B|-------------------------------|-------------------------------|
G|-------------------------------|-------------------------------|
D|-------------------------------|-------------------------------|
A|2---------------2--------------|-------------------------------|
E|-------------------------------|0-----------0------------------|


  F#m                             D
e|2-------2-------------2-----2--|2-------2-----------2----------|
B|2-------2-------------2-----2--|3-------3---------------3------|
G|2-------2-------------2-----2--|2-------2-------------------2--|  
D|4-------4-------------4-----4--|0-------0----------------------|
A|4-------4-------------4-----4--|-------------------------------|
E|2-------2-------------2-----2--|-------------------------------|                         
  She's   got a   ticket  to  ride       
e|-------------------------------|-------------------------------|
B|-------------------------------|-------------------------------|
G|-------------------------------|-------------------------------|
D|-------------------------------|-------------------------------|
A|-------------------------------|-------------------------------|
E|-------------------------------|-------------------------------|


  F#m                             Gflat5maj7   
e|2-------2-------------2-----2--|2------------------------------|
B|2-------2-------------2-----2--|2------------------------------|
G|2-------2-------------2-----2--|4------------------------------|
D|4-------4-------------4-----4--|5------------------------------|
A|4-------4-------------4-----4--|5------------------------------|
E|2-------2-------------2-----2--|3------------------------------|
  She's   got a   ticket  to  ride  


  F#m                         E
e|2------ 2------ 2-----2 ----0--|0-------0-------0---0---0------|
B|2-------2-------2-----2-----0--|0-------0-------0---0---0------|
G|2-------2-------2-----2-----1--|1-------1-------1---1---1------|
D|4-------4-------4-----4-----2--|2-------2-------2---2---2------|  
A|4-------4-------4-----4-----2--|2-------2-------2---2---2------|
E|2-------2-------2-----2-----0--|0-------0-------0---0---0------|
  She's   got a   ticket  to  ride            but she don't   care
e|-------------------------------|-------------------------------|
B|-------------------------------|-------------------------------|
G|-------------------------------|-------------------------------|
D|-------------------------------|-------------------------------|
A|-------------------------------|-------------------------------|
E|-------------------------------|-------------------------------|


  A
e|--------0-------------------0--|--------0-------------------0--|
B|------------2---------0--------|------------2---------0--------|
G|2---------------2--------------|2---------------2--------------|
D|-------------------------------|-------------------------------|
A|-------------------------------|-------------------------------|
E|-------------------------------|-------------------------------|
                                                              She
e|-------------------------------|-------------------------------|
B|-------------------------------|-------------------------------|
G|-------------------------------|-------------------------------|
D|-------------------------------|-------------------------------|
A|0-----------0------------------|0-----------0------------------|
E|-------------------------------|-------------------------------|



e|--------0-------------------0--|--------0-------------------0--|
B|------------2---------0--------|------------2---------0--------|
G|2---------------2--------------|2---------------2--------------|
D|-------------------------------|-------------------------------|
A|-------------------------------|-------------------------------|
E|-------------------------------|-------------------------------|
  said    that    living  with me             was bringing her down
e|-------------------------------|-------------------------------|
B|-------------------------------|-------------------------------|
G|-------------------------------|-------------------------------|
D|-------------------------------|-------------------------------|
A|0-----------0------------------|0-----------0------------------|
E|-------------------------------|-------------------------------|



e|--------0-------------------0--|--------0-------------------0--|
B|------------2---------0--------|------------2---------0--------|
G|2---------------2--------------|2---------------2--------------|
D|-------------------------------|-------------------------------|
A|-------------------------------|-------------------------------|
E|-------------------------------|-------------------------------|
                              yeah                            for
e|-------------------------------|-------------------------------|
B|-------------------------------|-------------------------------|
G|-------------------------------|-------------------------------|
D|-------------------------------|-------------------------------|
A|0-----------0------------------|0-----------0------------------|
E|-------------------------------|-------------------------------|



e|--------0-------------------0--|--------0-------------------0--|
B|------------2---------0--------|------------2---------0--------|
G|2---------------2--------------|2---------------2--------------|
D|-------------------------------|-------------------------------|
A|-------------------------------|-------------------------------|
E|-------------------------------|-------------------------------|
  she     would   never   be  free            when I was  around
e|-------------------------------|-------------------------------|
B|-------------------------------|-------------------------------|
G|-------------------------------|-------------------------------|
D|-------------------------------|-------------------------------|
A|0-----------0------------------|0-----------0------------------|
E|-------------------------------|-------------------------------|


  Bm                              E
e|--------2-------------2--------|0-------0-------0---0---0---0--|
B|------------3---------------3--|0-------0-------0---0---0---0--|
G|----------------4--------------|1-------1-------1---1---1---1--|
D|-------------------------------|2-------2-------2---2---2---2--|
A|2------------------------------|2-------2-------2---2---2---2--|
E|-------------------------------|0-------0-------0---0---0---0--|
         
e|-------------------------------|-------------------------------|
B|-------------------------------|-------------------------------|
G|-------------------------------|-------------------------------|
D|-------------------------------|-------------------------------|
A|2-----------2------------------|-------------------------------|
E|-------------------------------|0-----------0------------------|


  F#m                             D
e|2-------2-------------2-----2--|2-------2-----------2-------2--|
B|2-------2-------------2-----2--|3-------3-----------3-------3--|
G|2-------2-------------2-----2--|2-------2-----------2-------2--|  
D|4-------4-------------4-----4--|0-------0-----------0-------0--|
A|4-------4-------------4-----4--|-------------------------------|
E|2-------2-------------2-----2--|-------------------------------|  
  She's   got a   ticket  to  ride        


  F#m                             Gflat5maj7
e|2-------2-----------2----------|2------------------------------|
B|2-------2-----------2----------|2------------------------------|
G|2-------2-----------2----------|4------------------------------|
D|4-------4-----------4----------|5------------------------------|
A|4-------4-----------4----------|5------------------------------|
E|2-------2-----------2----------|3------------------------------|
  She's   got a   ticket  to  ride  


  F#m                             E
e|2-------2---2---2-----2-----2--|0-------0---0---0---0-------0--|
B|2-------2---2---2-----2-----2--|0-------0---0---0---0-------0--|
G|2-------2---2---2-----2-----2--|1-------1---1---1---1-------1--|
D|4-------4---4---4-----4-----4--|2-------2---2---2---2-------2--|  
A|4-------4---4---4-----4-----4--|2-------2---2---2---2-------2--|
E|-------------------------------|0-------0---0---0---0-------0--|
  She's   got a   ticket  to  ride            but she don't   care


  A
e|--------0-------------------0--|--------0-------------------0--|
B|------------2---------0--------|------------2---------0--------|
G|2---------------2--------------|2---------------2--------------|
D|-------------------------------|-------------------------------|
A|-------------------------------|-------------------------------|
E|-------------------------------|-------------------------------|
                                                              I
e|-------------------------------|-------------------------------|
B|-------------------------------|-------------------------------|
G|-------------------------------|-------------------------------|
D|-------------------------------|-------------------------------|
A|0-----------0------------------|0-----------0------------------|
E|-------------------------------|-------------------------------|


          D
e|--------2-------2---2-------2--|2-------2-------2---2-------2--|
B|--------3-------3---3-------3--|3-------3-------3---3-------3--|
G|--------2-------2---2-------2--|2-------2-------2---2-------2--|
D|--------0-------0---0-------0--|0-------0-------0---0-------0--|
A|-------------------------------|-------------------------------|
E|-------------------------------|-------------------------------|
 don't know why she's ridin' so high,                     She ought to


                                  E                           D
e|2-------2---2---2---2---2---2--|0-------0-------0---0-------2--|
B|3-------3---3---3---3---3---3--|0-------0-------3---0-------3--|
G|2-------2---2---2---2---2---2--|1-------1-------1---1-------2--|
D|0-------0---0---0---0---0---0--|2-------2-------2---2-------0--|
A|-------------------------------|2-------2-------2---2----------|
E|-------------------------------|0-------0-------0---0----------|
think twice she ought to do right by me                       Be..


                                              D7  D           D7        
e|--------2-------2---2-------2--|--------2---2---2---2-------2--|
B|--------3-------3---3-------3--|--------3---1---3---3-------1--|
G|--------2-------2---2-------2--|--------2---2---2---2-------2--|
D|--------0-------0---0-------0--|--------0---0---0---0-------0--|
A|-------------------------------|-------------------------------|
E|-------------------------------|-------------------------------|
  fore she gets to saying goodbye                         she ought to


          D                       E
e|--------2-------2---2----------|0------------------------------|
B|--------3-------3---3----------|0------------------------------|
G|--------2-------2---2----------|1------------------------------|
D|--------0-------0---0----------|2------------------------------|
A|-------------------------------|2------------------------------|
E|-------------------------------|0------------------------------|
think twice she ought to do right by me
e|-------------------------------|-------------------------------|
B|-------------------------------|----------------10B12R10-8B9--/|
G|-------------------------------|----------------------------9--|
D|-------------------------------|-------------------------------|
A|-------------------------------|-------------------------------|
E|-------------------------------|-------------------------------|


  E5
e|-------------------------------|
B|-------------------------------|
G|-------------------------------|
D|2---2---2---2---2---2---2---2--|
A|2---2---2---2---2---2---2---2--|
E|0---0---0---0---0---0---0---0--|
                              I
e|--------10------12B14R12-10-12-|
B|12----------12-----------------|
G|-------------------------------|
D|-------------------------------|
A|-------------------------------|
E|-------------------------------|
                              


  A
e|--------0-------------------0--|--------0-------------------0--|
B|------------2---------0--------|------------2---------0--------|
G|2---------------2--------------|2---------------2--------------|
D|-------------------------------|-------------------------------|
A|-------------------------------|-------------------------------|
E|-------------------------------|-------------------------------|
  think   I'm     gonna   be  sad             I   think it's  today,
e|-------------------------------|-------------------------------|
B|-------------------------------|-------------------------------|
G|-------------------------------|-------------------------------|
D|-------------------------------|-------------------------------|
A|0-----------0------------------|0-----------0------------------|
E|-------------------------------|-------------------------------|



e|--------0-------------------0--|--------0-------------------0--|
B|------------2---------0--------|------------2---------0--------|
G|2---------------2--------------|2---------------2--------------|
D|-------------------------------|-------------------------------|
A|-------------------------------|-------------------------------|
E|-------------------------------|-------------------------------|
                              yeah                            The
e|-------------------------------|-------------------------------|
B|-------------------------------|-------------------------------|
G|-------------------------------|-------------------------------|
D|-------------------------------|-------------------------------|
A|0-----------0------------------|0-----------0------------------|
E|-------------------------------|-------------------------------|



e|--------0-------------------0--|--------0-------------------0--|
B|------------2---------0--------|------------2---------0--------|
G|2---------------2--------------|2---------------2--------------|
D|-------------------------------|-------------------------------|
A|-------------------------------|-------------------------------|
E|-------------------------------|-------------------------------|
  girl    that's  driving me  mad             is  going   away
e|-------------------------------|-------------------------------|
B|-------------------------------|-------------------------------|
G|-------------------------------|-------------------------------|
D|-------------------------------|-------------------------------|
A|0-----------0------------------|0-----------0------------------|
E|-------------------------------|-------------------------------|


  Bm                              E
e|-------------------------------|0-------0---0---0---0---0------|
B|------------3---------------3--|0-------0---0---0---0---0------|
G|----------------4--------------|1-------1---1---1---1---1------|
D|-------------------------------|2-------2---2---2---2---2------|
A|2------------------------------|2-------2---2---2---2---2------|
E|-------------------------------|0-------0---0---0---0---0------|

e|-------------------------------|-------------------------------|
B|-------------------------------|-------------------------------|
G|-------------------------------|-------------------------------|
D|-------------------------------|-------------------------------|
A|-2----------2------------------|-------------------------------|
E|-------------------------------|0-----------0------------------|


  F#m                             D
e|2------ 2-----------2-------2--|2-------2-----------2---2---0--|
B|2-------2-----------2-------2--|3-------3-----------3---3---0--|
G|2-------2-----------2-------2--|2-------2-----------3---2---0--|  
D|4-------4-----------4-------4--|0-------0-----------0---0------|
A|4-------4-----------4-------4--|-------------------------------|
E|2-------2-----------2-------2--|-------------------------------|         
  She's   got a   ticket  to  ride       


  F#m                             Gflat5maj7
e|2-------2-------2---2---2------|2------------------------------|
B|2-------2-------2---2---2------|2------------------------------|
G|2-------2-------2---2---2------|4------------------------------|
D|4-------4-------4---4---4------|5------------------------------|
A|4-------4-------4---4---4------|5------------------------------|
E|2-------2-------2---2---2------|3------------------------------|
  She's   got a   ticket  to  ride  


  F#m                             E
e|2-------2-------2---2-------2--|0-------0-------0---0---0------|
B|2-------2-------2---2-------2--|0-------0-------0---0---0------|
G|2-------2-------2---2-------2--|1-------1-------1---1---1------|
D|4-------4-------4---4-------4--|2-------2-------2---2---2------|  
A|4-------4-------4---4-------4--|2-------2-------2---2---2------|
E|2-------2-------2---2-------2--|0-------0-------0---0---0------|
  She's   got a   ticket  to  ride            but she don't   care


  A
e|--------0-------------------0--|--------0-------------------0--|
B|------------2---------0--------|------------2---------0--------|
G|2---------------2--------------|2---------------2--------------|
D|-------------------------------|-------------------------------|
A|-------------------------------|-------------------------------|
E|-------------------------------|-------------------------------|
                                                              I
e|-------------------------------|-------------------------------|
B|-------------------------------|-------------------------------|
G|-------------------------------|-------------------------------|
D|-------------------------------|-------------------------------|
A|0-----------0------------------|0-----------0------------------|
E|-------------------------------|-------------------------------|  



          D
e|--------2-------2---2---2---2--|2-------2-------2---2-------2--|
B|--------3-------3---3---3---3--|3-------3-------3---3-------3--|
G|--------2-------2---2---2---2--|2-------2-------2---2-------2--|
D|--------0-------0---0---0---0--|0-------0-------0---0-------0--|
A|-------------------------------|-------------------------------|
E|-------------------------------|-------------------------------|
 don't know why she's ridin' so high,                     She ought to



                                  E                           D
e|2-------2---2---2---2---2---2--|0-------0-------0---0-------2--|
B|3-------3---3---3---3---3---3--|0-------0-------3---0-------3--|
G|2-------2---2---2---2---2---2--|1-------1-------1---1-------2--|
D|0-------0---0---0---0---0---0--|2-------2-------2---2-------0--|
A|-------------------------------|2-------2-------2---2----------|
E|-------------------------------|0-------0-------0---0----------|
think twice she ought to do right by me                       Be..



                                                  D7  D       D7
e|--------2---2---2---2-------2--|2-------2-------2---2-------2--|
B|--------3---3---3---3-------3--|3-------3-------1---3-------1--|
G|--------2---2---2---2-------2--|2-------2-------2---2-------2--|
D|--------0---0---0---0-------0--|0-------0-------0---0-------0--|
A|-------------------------------|-------------------------------|
E|-------------------------------|-------------------------------|
  fore she gets to saying goodbye                         she ought to


          D                   E                 
e|------- 2------ 2---2-- ----0--|0------------------------------|
B|--------3-------3---3-------0--|0------------------------------|
G|--------2-------2---2-------1--|1------------------------------|
D|--------0-------0---0-------2--|2------------------------------|
A|----------------------------2--|2------------------------------|
E|----------------------------0--|0------------------------------|
think twice she ought to do right by me
e|-------------------------------|-------------------------------|
B|-------------------------------|----------------10B12R10-8B9--/|
G|-------------------------------|----------------------------9--|
D|-------------------------------|-------------------------------|
A|-------------------------------|-------------------------------|
E|-------------------------------|-------------------------------|


  E5
e|-------------------------------|
B|-------------------------------|
G|-------------------------------|
D|2---2---2---2---2---2---2---2--|
A|2---2---2---2---2---2---2---2--|
E|0---0---0---0---0---0---0---0--|
                              I
e|--------10------12B14-12-10-12-|
B|12----------12-----------------|
G|-------------------------------|
D|-------------------------------|
A|-------------------------------|
E|-------------------------------|
                              


  A
e|--------0-------------------0--|--------0-------------------0--|
B|------------2---------0--------|------------2---------0--------|
G|2---------------2--------------|2---------------2--------------|
D|-------------------------------|-------------------------------|
A|-------------------------------|-------------------------------|
E|-------------------------------|-------------------------------|
  said    that    living  with me             was bringing her down
e|-------------------------------|-------------------------------|
B|-------------------------------|-------------------------------|
G|-------------------------------|-------------------------------|
D|-------------------------------|-------------------------------|
A|0-----------0------------------|0-----------0------------------|
E|-------------------------------|-------------------------------|



e|--------0-------------------0--|--------0-------------------0--|
B|------------2---------0--------|------------2---------0--------|
G|2---------------2--------------|2---------------2--------------|
D|-------------------------------|-------------------------------|
A|-------------------------------|-------------------------------|
E|-------------------------------|-------------------------------|
                              yeah                            for
e|-------------------------------|-------------------------------|
B|-------------------------------|-------------------------------|
G|-------------------------------|-------------------------------|
D|-------------------------------|-------------------------------|
A|0-----------0------------------|0-----------0------------------|
E|-------------------------------|-------------------------------|



e|--------0-------------------0--|--------0-------------------0--|
B|------------2---------0--------|------------2---------0--------|
G|2---------------2--------------|2---------------2--------------|
D|-------------------------------|-------------------------------|
A|-------------------------------|-------------------------------|
E|-------------------------------|-------------------------------|
  she     would   never   be  free            when I was  around
e|-------------------------------|-------------------------------|
B|-------------------------------|-------------------------------|
G|-------------------------------|-------------------------------|
D|-------------------------------|-------------------------------|
A|0-----------0------------------|0-----------0------------------|
E|-------------------------------|-------------------------------|


  Bm                              E
e|-------------------------------|0-------0-------0---0---0---0--|
B|------------3---------------3--|0-------0-------0---0---0---0--|
G|----------------4--------------|1-------1-------1---1---1---1--|
D|-------------------------------|2-------2-------2---2---2---2--|
A|2------------------------------|2-------2-------2---2---2---2--|
E|-------------------------------|0-------0-------0---0---0---0--|
         
e|-------------------------------|-------------------------------|
B|-------------------------------|-------------------------------|
G|-------------------------------|-------------------------------|
D|-------------------------------|-------------------------------|
A|2-----------2------------------|-------------------------------|
E|-------------------------------|0-----------0------------------|


  F#m                             D
e|2-------2-------2---2---2---2--|2-------2---2---2---2---2---2--|
B|2-------2-------2---2---2---2--|3-------3---3---3---3---3---3--|
G|2-------2-------2---2---2---2--|2-------2---2---2---2---2---2--|  
D|4-------4-------4---4---4---4--|0-------0---0---0---0---0---0--|
A|4-------4-------4---4---4---4--|-------------------------------|
E|2-------2-------2---2---2---2--|-------------------------------|         
  She's   got a   ticket  to  ride        


  F#m                             Gflat5maj7
e|2-------2---2---2---2---2------|2------------------------------|
B|2-------2---2---2---2---2------|2------------------------------|
G|2-------2---2---2---2---2------|4------------------------------|
D|4-------4---4---4---4---4------|5------------------------------|
A|4-------4---4---4---4---4------|5------------------------------|
E|2-------2---2---2---2---2------|3------------------------------|
  She's   got a   ticket  to  ride  


  F#m                             E
e|2-------2---2-------2-------0--|0-------0---0---0---0---0------|
B|2-------2---2-------2-------0--|0-------0---0---0---0---0------|
G|2-------2---2-------2-------1--|1-------1---1---1---1---1------|
D|4-------4---4-------4-------2--|2-------2---2---2---2---2------|  
A|4-------4---4-------4-------2--|2-------2---2---2---2---2------|
E|-------------------------------|0-------0---0---0---0---0------|
  She's   got a   ticket  to  ride            but she don't   care


  A
e|--------0-------------------0--|-------------------------------|
B|------------2---------0--------|-------------------------------|
G|2---------------2--------------|2------------------------------|
D|-------------------------------|-------------------------------|
A|-------------------------------|-------------------------------|
E|-------------------------------|-------------------------------|
                                          My      baby    don't            
e|-------------------------------|-------------------------------|
B|-------------------------------|-------------------------------|
G|-------------------------------|-------------------------------|
D|-------------------------------|-------------------------------|
A|0-----------0------------------|0------------------------------|
E|-------------------------------|-------------------------------|
                                                         

  A
e|--------0-------------------0--|--------0-------------------0--|
B|------------2---------0--------|------------2---------0--------|
G|2---------------2--------------|2---------------2--------------|
D|-------------------------------|-------------------------------|
A|-------------------------------|-------------------------------|
E|-------------------------------|-------------------------------|
  care                                     My      baby    don't                            
e|-------------------------------|-------------------------------|
B|-------------------------------|-------------------------------|
G|--------5B6R5-------7B8R7------|5B6R5---5B6R5------------------|
D|----------------7-----------7--|----------------7--------------|
A|-------------------------------|-------------------------------|
E|-------------------------------|-------------------------------|



e|--------0-------------------0--|--------0-------------------0--|
B|------------2---------0--------|------------2---------0--------|
G|2---------------2--------------|2---------------2--------------|
D|-------------------------------|-------------------------------|
A|-------------------------------|-------------------------------|
E|-------------------------------|-------------------------------|
  care                                     My      baby    don't        
e|-------------------------------|-------------------------------|
B|--------7B8R7------------------|--------7B8--------------------|
G|----------------7B8R7---5B6----|----------------7B8-----5B6----|
D|-------------------------------|----7--------------------------|
A|-------------------------------|-------------------------------|
E|-------------------------------|-------------------------------|



e|--------0-------------------0--|--------0-------------------0--|
B|------------2---------0--------|------------2---------0--------|
G|2---------------2--------------|2---------------2--------------|
D|-------------------------------|-------------------------------|
A|-------------------------------|-------------------------------|
E|-------------------------------|-------------------------------|
  care                                     My      baby    don't                           
e|-------------------------------|-------------------------------|
B|-------------------------------|----7B8------------------------|
G|--------5B6R5-------7B8-5B6----|-------------------------------|
D|7---------------7-----------7--|-------------------------------|
A|-------------------------------|-------------------------------|
E|-------------------------------|-------------------------------|



e|--------0-------------------0--|--------0-------------------0--|
B|------------2---------0--------|------------2---------0--------|
G|2---------------2--------------|2---------------2--------------|
D|-------------------------------|-------------------------------|
A|-------------------------------|-------------------------------|
E|-------------------------------|-------------------------------|
  care                                     My      baby    don't                            
e|-------------------------------|-------------------------------|
B|---7B8--8R7-----7B8--8R7----7B8R7------------------------------|
G|---7B8--8R7-----7B8--8R7----7B8R7-------5B6---------6B7-5B6----|
D|-------------------------------|------------7------------------|
A|-------------------------------|-------------------------------|
E|-------------------------------|-------------------------------|



e|--------0-------------------0--|--------0-------------------0--|
B|------------2---------0--------|------------2---------0--------|
G|2---------------2--------------|2---------------2--------------|
D|-------------------------------|-------------------------------|
A|-------------------------------|-------------------------------|
E|-------------------------------|-------------------------------|
  care                                     My      baby    don't                           
e|-------------------------------|----------------------------5--|
B|----------------------------7B8|7B8-----7B8-----7B8-7B8--------|
G|----5B6R5-------7B8R7----------|-------------------------------|
D|7-----------7-----------7------|-------------------------------|
A|-------------------------------|-------------------------------|
E|-------------------------------|-------------------------------|
  ..............................Fade.............................

************************************

        B  Bend
        R  Release
        /  slide up
        \  slide down
        H  hammer-on
        P  pull-off
        ~  vibrato
        +  harmonic
        x  Mute note
        . - play note like a dot in standard notation
        ^ - ties two notes together

************************************
Suggest correction
There is a new version of this tab from today which you may like more. Go check it out:
comments
print report bad tab
8 comments total. Showing first comments.
+1 reply
punk-gd 10 May 30, 2010 09:29 AM

yeah great tab

+1 reply
UnknownCloser 10 Oct 08, 2010 12:17 PM

Are there some sort of special instructions for a capo or different tuning? Otherwise this is not the same as the record. It sounds OK just to play, but if you try to play along with the song it's way off.

0 reply
68lpjr 10 Nov 08, 2010 02:07 PM

it's sounds off because there's a 12 string on the recording

guest
You may want to rate the tab now too:
select rating
Wanna post a correction for this tab? Suggest correction