Oops, an error
Loading. Please wait.
We have an official Ticket To Ride tab made by UG professional guitarists. Check out the tab »
×

Ticket To Ride tab

version 5
version 5

Whole song

Interactive

52 views 6 this week
no commentswrite comment
1 2 3 4 5
3 more votes to show rating
add to favorites
×
Save as Personal and add changes to this tab that will be seen only by you. Learn more ›
×
You can save this tab as Personal to edit and correct it or add notes. All changes will be seen only by you. Learn more »
launch autoscroll
font size
0
reset
how to read this tab
guitar tuner
backing track
0:00
0:00
edit
Autoscroll
slow
fast
+/-
esc
set tempo
stop
About this tab version
This tab contains both lead and rhythm guitar for (She's got a) Ticket to Ride by the Beatles. It is an easy song once you learn it. There are timestamps for each section and they are lyrics on some of the sections so you know where to play what. Hope you enjoy :). Was this info helpful? Yes No
ARTIST: THE BEATLES

SONG: (SHE'S GOT A) TICKET TO RIDE

TUNING: STANDARD (EADGBe)

CAPO: NONE

=============
*LEAD GUITAR*
=============

[Rhythm Guitar Starts] (0:00)
Does not play

[Intro/Verse 1] (0:04)
e|-------------|
B|---2---------|
G|---2---------|
D|---2---------| PLAY THIS *ONCE* EACH TIME YOU START A VERSE
A|-------------|
E|-------------|

e|-------------------------------------------------------------------|
B|-----2--------2----------------------------------------------------|
G|--2--2-----2--2----------------------------------------------------|
D|--2--2-----2--2----------------------------------------------------| (x4)
A|-------------------------------------------------------------------|
E|-------------------------------------------------------------------|

[Pre-Chorus 1] (0:19)
Is going away....
e|---2---2-2-2---2-----0----0-0-0------------------------------------|
B|---3---3-3-3---3-----0----0-0-0------------------------------------|
G|---4---4-4-4---4-----1----1-1-1------------------------------------|
D|---------------------2----2-2-2------------------------------------|
A|---------------------2----2-2-2------------------------------------|
E|-------------------------------------------------------------------|

[Chorus 1] (0:24)
She's got a ticket to ride    She's got a ticket to ri-i-i-ide
e|----------------2----2-2-2-----------------2----2-2-2--------------|
B|----------------3----3-3-3-----------------2----2-2-2--------------|
G|----------------2----2-2-2-----------------2----2-2-2--------------|
D|-------------------------------------------0----0-0-0--------------|
A|---4----4-4-4-----------------4----4-4-4---------------------------|
E|---2----2-2-2-----------------2----2-2-2---------------------------|

She's got a ticket to ride,  and she don't care
e|------------------------------0----0-0-0-----------------------------------------|
B|------------------------------0----0-0-0-----------------------------------------|
G|------------------------------1----1-1-1-----------------------------------------|
D|------------------------------2----2-2-2-----------------------------------------|
A|---4----4-4-4-----------------2----2-2-2-----------------------------------------|
E|---2----2-2-2--------------------------------------------------------------------|

[Post-Chorus 1] (0:35)
e|-------------|
B|---2---------|
G|---2---------|
D|---2---------|
A|-------------|
E|-------------|

e|-------------------------------------------------------------------|
B|-----2--------2----------------------------------------------------|
G|--2--2-----2--2----------------------------------------------------|
D|--2--2-----2--2----------------------------------------------------| 
A|-------------------------------------------------------------------|
E|-------------------------------------------------------------------|


[Verse 2] (0:39)
e|-------------|
B|---2---------|
G|---2---------|
D|---2---------| PLAY THIS *ONCE* EACH TIME YOU START A VERSE
A|-------------|
E|-------------|

e|-------------------------------------------------------------------|
B|-----2--------2----------------------------------------------------|
G|--2--2-----2--2----------------------------------------------------|
D|--2--2-----2--2----------------------------------------------------| (x4)
A|-------------------------------------------------------------------|
E|-------------------------------------------------------------------|

[Pre-Chorus 2] (0:50)
When I was around....
e|---2---2-2-2---2-----0----0-0-0------------------------------------|
B|---3---3-3-3---3-----0----0-0-0------------------------------------|
G|---4---4-4-4---4-----1----1-1-1------------------------------------|
D|---------------------2----2-2-2------------------------------------|
A|---------------------2----2-2-2------------------------------------|
E|-------------------------------------------------------------------|

[Chorus 2] (0:54)
She's got a ticket to ride    She's got a ticket to ri-i-i-ide
e|----------------2----2-2-2-----------------2----2-2-2--------------|
B|----------------3----3-3-3-----------------2----2-2-2--------------|
G|----------------2----2-2-2-----------------2----2-2-2--------------|
D|-------------------------------------------0----0-0-0--------------|
A|---4----4-4-4-----------------4----4-4-4---------------------------|
E|---2----2-2-2-----------------2----2-2-2---------------------------|

She's got a ticket to ride,  and she don't care                *When they say "care" go to post-chorus*
e|------------------------------0----0-0-0-----------------------------------------|
B|------------------------------0----0-0-0-----------------------------------------|
G|------------------------------1----1-1-1-----------------------------------------|
D|------------------------------2----2-2-2-----------------------------------------|
A|---4----4-4-4-----------------2----2-2-2-----------------------------------------|
E|---2----2-2-2--------------------------------------------------------------------|

[Post-Chorus 2] (1:06)
e|-------------|
B|---2---------|
G|---2---------|
D|---2---------|
A|-------------|
E|-------------|

e|-------------------------------------------------------------------|
B|-----2--------2----------------------------------------------------|
G|--2--2-----2--2----------------------------------------------------|
D|--2--2-----2--2----------------------------------------------------| 
A|-------------------------------------------------------------------|
E|-------------------------------------------------------------------|


[Bridge 1] (1:10)

e|--2-2-2-2-2-2-2-2--------------------------------------------------|
B|--3-3-3-3-3-3-3-3--------------------------------------------------| 
G|--2-2-2-2-2-2-2-2--------------------------------------------------| (x3)
D|-------------------------------------------------------------------|
A|-------------------------------------------------------------------|
E|-------------------------------------------------------------------|

She ought to do right by me.
e|-----------------------4---------|
B|-----------------------5---------|
G|-----------------------4---------|
D|---------------------------------|
A|---------------------------------|
E|---------------------------------|

e|--2-2-2-2-2-2-2-2--------------------------------------------------|
B|--3-3-3-3-3-3-3-3--------------------------------------------------| 
G|--2-2-2-2-2-2-2-2--------------------------------------------------| (x3)
D|-------------------------------------------------------------------|
A|-------------------------------------------------------------------|
E|-------------------------------------------------------------------|

[Guitar Riff] (1:24)
e|-------------------------10------12b--10--12-------|
B|--10b---------10/12\10-------12--------------------|
G|-------12--9---------------------------------------|
D|---------------------------------------------------|
A|---------------------------------------------------|
E|---------------------------------------------------|

[Verse 3] (1:28)
e|-------------|
B|---2---------|
G|---2---------|
D|---2---------| PLAY THIS *ONCE* EACH TIME YOU START A VERSE
A|-------------|
E|-------------|

e|-------------------------------------------------------------------|
B|-----2--------2----------------------------------------------------|
G|--2--2-----2--2----------------------------------------------------|
D|--2--2-----2--2----------------------------------------------------| (x4)
A|-------------------------------------------------------------------|
E|-------------------------------------------------------------------|

[Pre-Chorus 3] (0:50)
Is going away....      Yeah!
e|---2---2-2-2---2-----0----0-0-0------------------------------------|
B|---3---3-3-3---3-----0----0-0-0------------------------------------|
G|---4---4-4-4---4-----1----1-1-1------------------------------------|
D|---------------------2----2-2-2------------------------------------|
A|---------------------2----2-2-2------------------------------------|
E|-------------------------------------------------------------------|

[Chorus 3] (1:43)
She's got a ticket to ride    She's got a ticket to ri-i-i-ide
e|----------------2----2-2-2-----------------2----2-2-2--------------|
B|----------------3----3-3-3-----------------2----2-2-2--------------|
G|----------------2----2-2-2-----------------2----2-2-2--------------|
D|-------------------------------------------0----0-0-0--------------|
A|---4----4-4-4-----------------4----4-4-4---------------------------|
E|---2----2-2-2-----------------2----2-2-2---------------------------|

She's got a ticket to ride,  and she don't care                *When they say "care" go to post-chorus*
e|------------------------------0----0-0-0-----------------------------------------|
B|------------------------------0----0-0-0-----------------------------------------|
G|------------------------------1----1-1-1-----------------------------------------|
D|------------------------------2----2-2-2-----------------------------------------|
A|---4----4-4-4-----------------2----2-2-2-----------------------------------------|
E|---2----2-2-2--------------------------------------------------------------------|

[Post-Chorus 3] (1:55)
e|-------------|
B|---2---------|
G|---2---------|
D|---2---------|
A|-------------|
E|-------------|

e|-------------------------------------------------------------------|
B|-----2--------2----------------------------------------------------|
G|--2--2-----2--2----------------------------------------------------|
D|--2--2-----2--2----------------------------------------------------| 
A|-------------------------------------------------------------------|
E|-------------------------------------------------------------------|

[Bridge 2] (1:59)

e|--2-2-2-2-2-2-2-2--------------------------------------------------|
B|--3-3-3-3-3-3-3-3--------------------------------------------------| 
G|--2-2-2-2-2-2-2-2--------------------------------------------------| (x3)
D|-------------------------------------------------------------------|
A|-------------------------------------------------------------------|
E|-------------------------------------------------------------------|

She ought to do right by me.
e|-----------------------4---------|
B|-----------------------5---------|
G|-----------------------4---------|
D|---------------------------------|
A|---------------------------------|
E|---------------------------------|

e|--2-2-2-2-2-2-2-2--------------------------------------------------|
B|--3-3-3-3-3-3-3-3--------------------------------------------------| 
G|--2-2-2-2-2-2-2-2--------------------------------------------------| (x3)
D|-------------------------------------------------------------------|
A|-------------------------------------------------------------------|
E|-------------------------------------------------------------------|

[Guitar Riff] (2:13)
e|-------------------------10------12b--10--12-------|
B|--10b---------10/12\10-------12--------------------|
G|-------12--9---------------------------------------|
D|---------------------------------------------------|
A|---------------------------------------------------|
E|---------------------------------------------------|

[Verse 4] (2:16)
e|-------------|
B|---2---------|
G|---2---------|
D|---2---------|  PLAY THIS *ONCE* EACH TIME YOU START A VERSE
A|-------------|
E|-------------|

e|-------------------------------------------------------------------|
B|-----2--------2----------------------------------------------------|
G|--2--2-----2--2----------------------------------------------------|
D|--2--2-----2--2----------------------------------------------------| (x4)
A|-------------------------------------------------------------------|
E|-------------------------------------------------------------------|

[Pre-Chorus 4] (2:28)
When I was around...
e|---2---2-2-2---2-----0----0-0-0------------------------------------|
B|---3---3-3-3---3-----0----0-0-0------------------------------------|
G|---4---4-4-4---4-----1----1-1-1------------------------------------|
D|---------------------2----2-2-2------------------------------------|
A|---------------------2----2-2-2------------------------------------|
E|-------------------------------------------------------------------|

[Chorus 4] (2:31)
Ah, She's got a ticket to ride        She's got a ticket to ri-i-i-ide
e|----------------2----2-2-2-----------------2----2-2-2--------------|
B|----------------3----3-3-3-----------------2----2-2-2--------------|
G|----------------2----2-2-2-----------------2----2-2-2--------------|
D|-------------------------------------------0----0-0-0--------------|
A|---4----4-4-4-----------------4----4-4-4---------------------------|
E|---2----2-2-2-----------------2----2-2-2---------------------------|

She's got a ticket to ride,  and she don't care                *When they say "care" go to post-chorus*
e|------------------------------0----0-0-0-----------------------------------------|
B|------------------------------0----0-0-0-----------------------------------------|
G|------------------------------1----1-1-1-----------------------------------------|
D|------------------------------2----2-2-2-----------------------------------------|
A|---4----4-4-4-----------------2----2-2-2-----------------------------------------|
E|---2----2-2-2--------------------------------------------------------------------|

[Post-Chorus 4] (2:44)
e|-------------|
B|---2---------|
G|---2---------|
D|---2---------|
A|-------------|
E|-------------|

e|-------------------------------------------------------------------|
B|-----2--------2----------------------------------------------------|
G|--2--2-----2--2----------------------------------------------------|
D|--2--2-----2--2----------------------------------------------------| 
A|-------------------------------------------------------------------|
E|-------------------------------------------------------------------|

[Outro] (2:46)

Play open A chord eighth notes ( 1 and 2 and 3 and 4 and )   x8

End on last A Chord ( Let it ring out )

===================
| b - Bend
| / - Slide Up
| \ - Slide Down
===================



===============
*RHYTHM GUITAR* 
===============

[Rhythm Guitar Starts] (0:00)
e|-------0-----------0---------------------|
B|----------2----0-------------------------|
G|--2----------2---------------------------|
D|-----------------------------------------|  (x2)
A|-----------------------------------------|
E|-----------------------------------------|

[Intro/Verse 1] (0:04)
e|-------0-----------0---------------------|
B|----------2----0-------------------------|
G|--2----------2---------------------------|
D|-----------------------------------------| (x8)
A|-----------------------------------------|
E|-----------------------------------------|

[Pre-Chorus 1] (0:19)
Is going away....
e|---2---2-2-2---2-----0----0-0-0------------------------------------|
B|---3---3-3-3---3-----0----0-0-0------------------------------------|
G|---4---4-4-4---4-----1----1-1-1------------------------------------|
D|---------------------2----2-2-2------------------------------------|
A|---------------------2----2-2-2------------------------------------|
E|-------------------------------------------------------------------|

[Chorus 1] (0:24)
She's got a ticket to ride    She's got a ticket to ri-i-i-ide
e|----------------2----2-2-2-----------------2----2-2-2--------------|
B|----------------3----3-3-3-----------------2----2-2-2--------------|
G|----------------2----2-2-2-----------------2----2-2-2--------------|
D|-------------------------------------------0----0-0-0--------------|
A|---4----4-4-4-----------------4----4-4-4---------------------------|
E|---2----2-2-2-----------------2----2-2-2---------------------------|

She's got a ticket to ride,  and she don't care
e|------------------------------0----0-0-0-----------------------------------------|
B|------------------------------0----0-0-0-----------------------------------------|
G|------------------------------1----1-1-1-----------------------------------------|
D|------------------------------2----2-2-2-----------------------------------------|
A|---4----4-4-4-----------------2----2-2-2-----------------------------------------|
E|---2----2-2-2--------------------------------------------------------------------|

[Post-Chorus 1] (0:35)
e|-------0-----------0---------------------|
B|----------2----0-------------------------|
G|--2----------2---------------------------|
D|-----------------------------------------|  (x2)
A|-----------------------------------------|
E|-----------------------------------------|


[Verse 2] (0:39)
e|-------0-----------0---------------------|
B|----------2----0-------------------------|
G|--2----------2---------------------------|
D|-----------------------------------------|  (x4)
A|-----------------------------------------|
E|-----------------------------------------|


[Pre-Chorus 2] (0:50)
When I was around....
e|---2---2-2-2---2-----0----0-0-0------------------------------------|
B|---3---3-3-3---3-----0----0-0-0------------------------------------|
G|---4---4-4-4---4-----1----1-1-1------------------------------------|
D|---------------------2----2-2-2------------------------------------|
A|---------------------2----2-2-2------------------------------------|
E|-------------------------------------------------------------------|

[Chorus 2] (0:54)
She's got a ticket to ride    She's got a ticket to ri-i-i-ide
e|----------------2----2-2-2-----------------2----2-2-2--------------|
B|----------------3----3-3-3-----------------2----2-2-2--------------|
G|----------------2----2-2-2-----------------2----2-2-2--------------|
D|-------------------------------------------0----0-0-0--------------|
A|---4----4-4-4-----------------4----4-4-4---------------------------|
E|---2----2-2-2-----------------2----2-2-2---------------------------|

She's got a ticket to ride,  and she don't care                *When they say "care" go to post-chorus*
e|------------------------------0----0-0-0-----------------------------------------|
B|------------------------------0----0-0-0-----------------------------------------|
G|------------------------------1----1-1-1-----------------------------------------|
D|------------------------------2----2-2-2-----------------------------------------|
A|---4----4-4-4-----------------2----2-2-2-----------------------------------------|
E|---2----2-2-2--------------------------------------------------------------------|

[Post-Chorus 2] (1:06)
e|-------0-----------0---------------------|
B|----------2----0-------------------------|
G|--2----------2---------------------------|
D|-----------------------------------------|  (x2)
A|-----------------------------------------|
E|-----------------------------------------|

[Bridge 1] (1:10)

e|--2-2-2-2-2-2-2-2--------------------------------------------------|
B|--3-3-3-3-3-3-3-3--------------------------------------------------| 
G|--2-2-2-2-2-2-2-2--------------------------------------------------| (x3)
D|-------------------------------------------------------------------|
A|-------------------------------------------------------------------|
E|-------------------------------------------------------------------|

She ought to do right by me.
e|-----------------------4---------|
B|-----------------------5---------|
G|-----------------------4---------|
D|---------------------------------|
A|---------------------------------|
E|---------------------------------|

e|--2-2-2-2-2-2-2-2--------------------------------------------------|
B|--3-3-3-3-3-3-3-3--------------------------------------------------| 
G|--2-2-2-2-2-2-2-2--------------------------------------------------| (x3)
D|-------------------------------------------------------------------|
A|-------------------------------------------------------------------|
E|-------------------------------------------------------------------|

[Guitar Riff] (1:24)

Does not play

[Verse 3] (1:28)
e|-------0-----------0---------------------|
B|----------2----0-------------------------|
G|--2----------2---------------------------|
D|-----------------------------------------|  (x4)
A|-----------------------------------------|
E|-----------------------------------------|

[Pre-Chorus 3] (0:50)
Is going away....      Yeah!
e|---2---2-2-2---2-----0----0-0-0------------------------------------|
B|---3---3-3-3---3-----0----0-0-0------------------------------------|
G|---4---4-4-4---4-----1----1-1-1------------------------------------|
D|---------------------2----2-2-2------------------------------------|
A|---------------------2----2-2-2------------------------------------|
E|-------------------------------------------------------------------|

[Chorus 3] (1:43)
She's got a ticket to ride    She's got a ticket to ri-i-i-ide
e|----------------2----2-2-2-----------------2----2-2-2--------------|
B|----------------3----3-3-3-----------------2----2-2-2--------------|
G|----------------2----2-2-2-----------------2----2-2-2--------------|
D|-------------------------------------------0----0-0-0--------------|
A|---4----4-4-4-----------------4----4-4-4---------------------------|
E|---2----2-2-2-----------------2----2-2-2---------------------------|

She's got a ticket to ride,  and she don't care                *When they say "care" go to post-chorus*
e|------------------------------0----0-0-0-----------------------------------------|
B|------------------------------0----0-0-0-----------------------------------------|
G|------------------------------1----1-1-1-----------------------------------------|
D|------------------------------2----2-2-2-----------------------------------------|
A|---4----4-4-4-----------------2----2-2-2-----------------------------------------|
E|---2----2-2-2--------------------------------------------------------------------|

[Post-Chorus 3] (1:55)
e|-------0-----------0---------------------|
B|----------2----0-------------------------|
G|--2----------2---------------------------|
D|-----------------------------------------|  (x2)
A|-----------------------------------------|
E|-----------------------------------------|

[Bridge 2] (1:59)

e|--2-2-2-2-2-2-2-2--------------------------------------------------|
B|--3-3-3-3-3-3-3-3--------------------------------------------------| 
G|--2-2-2-2-2-2-2-2--------------------------------------------------| (x3)
D|-------------------------------------------------------------------|
A|-------------------------------------------------------------------|
E|-------------------------------------------------------------------|

She ought to do right by me.
e|-----------------------4---------|
B|-----------------------5---------|
G|-----------------------4---------|
D|---------------------------------|
A|---------------------------------|
E|---------------------------------|

e|--2-2-2-2-2-2-2-2--------------------------------------------------|
B|--3-3-3-3-3-3-3-3--------------------------------------------------| 
G|--2-2-2-2-2-2-2-2--------------------------------------------------| (x3)
D|-------------------------------------------------------------------|
A|-------------------------------------------------------------------|
E|-------------------------------------------------------------------|

[Guitar Riff] (2:13)

Does not play

[Verse 4] (2:16)
e|-------0-----------0---------------------|
B|----------2----0-------------------------|
G|--2----------2---------------------------|
D|-----------------------------------------|  (x4)
A|-----------------------------------------|
E|-----------------------------------------|

[Pre-Chorus 4] (2:28)
When I was around...
e|---2---2-2-2---2-----0----0-0-0------------------------------------|
B|---3---3-3-3---3-----0----0-0-0------------------------------------|
G|---4---4-4-4---4-----1----1-1-1------------------------------------|
D|---------------------2----2-2-2------------------------------------|
A|---------------------2----2-2-2------------------------------------|
E|-------------------------------------------------------------------|

[Chorus 4] (2:31)
Ah, She's got a ticket to ride        She's got a ticket to ri-i-i-ide
e|----------------2----2-2-2-----------------2----2-2-2--------------|
B|----------------3----3-3-3-----------------2----2-2-2--------------|
G|----------------2----2-2-2-----------------2----2-2-2--------------|
D|-------------------------------------------0----0-0-0--------------|
A|---4----4-4-4-----------------4----4-4-4---------------------------|
E|---2----2-2-2-----------------2----2-2-2---------------------------|

She's got a ticket to ride,  and she don't care                *When they say "care" go to post-chorus*
e|------------------------------0----0-0-0-----------------------------------------|
B|------------------------------0----0-0-0-----------------------------------------|
G|------------------------------1----1-1-1-----------------------------------------|
D|------------------------------2----2-2-2-----------------------------------------|
A|---4----4-4-4-----------------2----2-2-2-----------------------------------------|
E|---2----2-2-2--------------------------------------------------------------------|

[Post-Chorus 4] (2:44)
e|-------0-----------0---------------------|
B|----------2----0-------------------------|
G|--2----------2---------------------------|
D|-----------------------------------------|  (x2)
A|-----------------------------------------|
E|-----------------------------------------|

[Outro] (2:46)

Play open A chord eighth notes ( 1 and 2 and 3 and 4 and )   x8

End on last A Chord ( Let it ring out )


===================
| b - Bend
| / - Slide Up
| \ - Slide Down
===================


======================
Tabbed By: astorper22
======================


            
            
Suggest correction
Creating personal tab
Creating personal tab
You can edit any tab online and save it as your Personal.

You can edit, replace or remove any tab part or add personal notes – all changes will be seen only by you.

Personal tabs can be accessed anytime from any device, even offline.
Learn more »
Give kudos to tab author, rate the tab!
1 2 3 4 5
comments
print report bad tab
guest
You may want to rate the tab now too:
select rating
Wanna post a correction for this tab? Suggest correction