Oops, an error
Loading. Please wait.
We have an official Till There Was You tab made by UG professional guitarists. Check out the tab »
×

Till There Was You chords

version 11
version 11

Whole song

Interactive

661 views 21 this week
no commentswrite comment
1 2 3 4 5
x 3
add to favorites
×
Save as Personal and add changes to this tab that will be seen only by you. Learn more ›
×
You can save this tab as Personal to edit and correct it or add notes. All changes will be seen only by you. Learn more »
launch autoscroll
font size
0
reset
transpose
0
reset
simplify chords
display chords
guitar tuner
backing track
0:00
0:00
edit
Autoscroll
slow
fast
+/-
esc
set tempo
stop
About this tab version
More easy to play than other versions. Was this info helpful? Yes No
Strumming Is this strumming pattern correct? Yes No
120 bpm
1
&
2
&
3
&
4
&
Listen
Chords:   EADGBe         EADGBe      EADGBe        EADGBe
F         133211  Gm     355333  Am  577555  D     XX0232
Fadd(4)   113211  Gm11   335333  G#m 466444  GmMaj7354333
F11       111211  Dm11/G 333333  Bb  x13331  F7+   XX3210                               
F#dim7    1x1212  C7     X35353  Bbm X13321  G11#5 333443 
                  
[Intro]
F  Fadd(4)  F11  F#dim7    
e|------- ------- ------- -------|
B|-----1-------------------------|
G|2---------2--------------------|
D|----------------4--------------|
A|-------------------------------|
E|-------------------------------|

Gm  Gm11  Dm11/G  C7
e|------- ------- ------- -------|
B|3------------------------------|
G|-----3-------------------------|
D|----------5--------------------|
A|----------------3--------------|
E|-------------------------------|

            F          F#dim7       
There were bells on a hill
       Gm               Bbm
But I never heard them ringing
      F     Am     G#m   Gm  C7
No I never heard them at all
                 F Gm C7
Till there was you

            F             F#dim7       
There were birds in the sky
       Gm             Bbm
But I never saw them winging
      F     Am   G#m   Gm  C7
No I never saw them at all
                 F F7       
Till there was you


                Bb   Bbm                F
Then there was music     and wonderful roses
     D              Gm  GmMaj7                  G11#5        C7
They   tell me in sweet      fragrant meadows of dawn and you


           F         F#dim7       
There was love all around
       Gm             Bbm
But I never heard it singing
      F     Am   G#m   Gm  C7
No I never heard it at all
                 F Gm C7
Till there was you

[Solo]
F                   F#dim7               
e|-----|---1-----|---------|-----------|---------|
B|-----|-1---3-1-|---------|-----1-4---|-3-1-----|
G|-2-3-|---------|-3-2-0---|---2-------|-----3-2-|
D|-----|---------|-------3-|-4---------|---------|
A|-----|---------|---------|-----------|---------|
E|-----|---------|---------|-----------|---------|        

Gm                       Bbm                 F      
e|---3-5-3-|-5-3-5-3-|---6-8-6-|-8-6-8-6-|----10-|
B|---3-5-3-|-5-3-5-3-|---6-8-6-|-6-6-8-6-|----10-|
G|-3-3-5-3-|-5-3-5-3-|-6-6-8-6-|-6-6-8-6-|----10-|
D|---------|---------|---------|---------|-10-- -|
A|---------|---------|---------|---------|-------|
E|---------|---------|---------|---------|-------|

  Am G#m   Gm   C7                     F        F7   
e|-8--7---|-6--|-5----|-1-1---|-----|-----------|-----1-|
B|-5--4---|-3--|-5----|-----1-|-----|-----------|---1---|
G|-5--4---|-3--|-3----|-------|-2---|-----------|-2-----|
D|-7--6---|-5--|-5----|-------|-----|---1-4-----|-------|
A|--------|----|-3----|-------|---0-|-3---------|-------|
E|--------|----|-3----|-------|-----|-----------|-------|
                                                 Then there was 
                                                                                   
 Bb   Bbm                F
music     and wonderful roses
     D              Gm  GmMaj7                 G11#5        C7
They   tell me in sweet      fragrant meadows of dawn and you


           F         F#dim7       
There was love all around
       Gm             Bbm
But I never heard it singing
      F     Am   G#m   Gm  C7
No I never heard it at all
                 F
Till there was you


 C E C7                 F   C#  F     F7+

            
            
Suggest correction
Creating personal tab
Creating personal tab
You can edit any tab online and save it as your Personal.

You can edit, replace or remove any tab part or add personal notes – all changes will be seen only by you.

Personal tabs can be accessed anytime from any device, even offline.
Learn more »
Give kudos to tab author, rate the tab!
1 2 3 4 5
comments
print report bad tab
guest
You may want to rate the tab now too:
select rating
Wanna post a correction for this tab? Suggest correction