Oops, an error
Loading. Please wait.

Till There Was You Tab

version 2
version 2

Whole song

Interactive

136,129 views 52 this week
7 commentsread comments
1 2 3 4 5
accurate
x 9
add to favorites
launch autoscroll
font size
0
reset
how to read this tab
guitar tuner
Tab Pro tools
  • play this tab
  • loop segment
  • change instrument
  • show fretboard
  • metronome
×
Best way to learn
"Till There Was You"
Autoscroll
slow
fast
+/-
esc
set tempo
stop
Contributor
  ----------------------------------------------------------------

  THE BEATLES - TILL THERE WAS YOU. From WITH THE BEATLES album.
                Released on November, 22nd, 1963. (This is a cover
                version from Meredith Wilson's number included in 
                1957's Broadway Show "The Music Man".)

  ----------------------------------------------------------------

  Tabbed by:PJVillanueva






Intro

F     F#dim  Gm  C7/9
F     F#dim  Gm  C7/9 



           F            F#dim
There were bells on a hill

      Gm               Bbm
But I never heard them ringing

     F        Am    G#m   Gm   C7/9
No I never heard them at all

     F             Gm  C7/9
Till there was you



           F              F#dim
There were birds in the sky

      Gm             Bbm
But I never saw them winging

     F      Am     G#m   Gm  C7/9
No I never saw them at all

     F            F7/9
Till there was you   


                     

                Bb   Bbm               F
Then there was music     and wonderful roses

       D7/9       Gm   D#5            G7         C7/9     C#5
They   tell me in sweet      fragrant meadows of dawn and dew

      F               F#dim 
There was love all around

      Gm             Bbm
But I never heard it singing

  F        Am   G#m    Gm  C7/9
No I never heard it at all

     F            Gm C7/9
Till there was you




SOLO:  F    F#dim  Gm  Bbm  F   Am G#m Gm  C7/9   F   F7/9




Then there was

Bb     Bbm              F
music     and wonderful roses

       D7/9        Gm   D#5           G7         C  C9    C7/#5 
They   tell me in sweet      fragrant meadows of dawn and you




          F          F#dim 
There was love all around

      Gm             Bbm
But I never heard it singing

  F           Am   G#m   Gm  C7/9
No I never heard it at all

     F
Till there was you

 C   E  C                F     C#   F     Fmaj7/9  
 Till..........there was you.............






 Intro
                                     
  
e|------- ------- ------- -------|------- ------- ------- -------|
B|----1--------------------------|3------------------------------|
G|2----------2-------------------|---3------------5--------------|
D|----------------4--------------|-----------5-------------------|
A|-------------------------------|-------------------------------|
E|-------------------------------|-------------------------------|
  ............................2 times............................




 Solo


e|------- ------- ------- -------|---1--- ------- ------- -------|
B|-------------------------------|1-------3---1------------------|
G|------------------------2---3--|----------------3---2---0------|
D|-------------------------------|----------------------------3--|
A|-------------------------------|-------------------------------|
E|-------------------------------|-------------------------------|



e|------- ------- ------- -------|------3 3---3-- 3---3-- 3---3--|
B|--------1---4---3---1----------|------3-3---3---3---3---3---3--|
G|---2--------------------3---2--|3-----3-5---3---5---3---5---3--|
D|4------------------------------|-------------------------------|
A|-------------------------------|-------------------------------|
E|-------------------------------|-------------------------------|



e|------6 8---6-- 8---6-- 8---6--|------- ------- ----8-- ----7--|
B|------6-6---6---6---6---6---6--|--------10---------10-------9--|
G|6-----6-6---6---6---6---6---6--|------10------------9-------8--|
D|-------------------------------|----10----------10------9------|
A|-------------------------------|-8----------8------------------|
E|-------------------------------|-------------------------------|



e|6------ ------- 5------ -------|------- ------- ------- -------|
B|8---------------2--------------|6---6--------------------------|
G|7---------------3--------------5----------7--------------------|
D|8---------------2-------------7-----------------5--------------|
A|----------------3------------8-|-------------------------------|
E|-------------------------------|----------------------------5--|



e|------- ------- ------- -------|
B|------------------------6------|
G|--------------------5----------|
D|-----------4----7--------------|
A|3-----6------------------------|
E|-------------------------------|








 Ending - First guitar 

 1                               2
e|0------ 0---0-- 0------ 0---0--|0------ 0---0-- ----0-- 0------|
B|1------1----1---0------0----0--|1------1----1-------0---0------|
G|0-----0-----0---1-----1-----1--|0-----0-----0-------1---1------|
D|2----2------2---2----2------2--|2----2------2-------2---2------|
A|3---3-------3---2---2-------2--|3---3-------3-------3---3------|
E|-------------------------------|-------------------------------|


 3                               4
e|1------ ---1--- 1------ 1------|4------ ---4--- ------- 4------|
B|1----------1----1-------1------|6----------6------------6------|
G|2----------2----2-------2------|6----------6------------6------|
D|3----------3----3-------3------|6----------6------------6------|
A|3----------3----3-------3------|4----------4------------4------|
E|1------------------------------|-------------------------------|


 5                               6
e|1------ ---1--- ------- 1------|1------ ------- 1------ -------|
B|1----------1------------1------|1---------------1--------------|
G|2----------2------------2------|2---------------2--------------|
D|3----------3------------3------|3---------------3--------------|
A|3----------3------------3------|3---------------3--------------|
E|1----------1------------1------|1---------------1--------------|





  Ending - Second guitar

 3                               4
e|------- ------- 10----8----10--|-9----- 11----9 ---11-- -9-----|
B|----------------10---10----10--|-9-------9----9-----9----9-----|
G|----------------10---10----10--|10------10---10----10---10-----|
D|-------------------------------|-------------------------------|
A|-------------------------------|-------------------------------|
E|-------------------------------|-------------------------------|



 5                               6
e|------- ------- ------- -------|------- ------- 3------ -------|
B|-------------------------------|----------------5--------------|
G|-------------------------------|----------------5--------------|
D|-------------------------------|----------------3--------------|
A|-------------------------------|----------------3--------------|
E|-------------------------------|-------------------------------|









            Chords:     
            
            F         133211
            F#dim     2x121x    xx1212
            Gm        355333
            C7/9      x3233x
            Bbm       688666
            Am        577555
            G#m       466444
            F7/9      xx3243
            Bb        688766
            D7/9      x5455x
            D#5       x5433x
            G7        353433
            C         332010
            C9        x32013
            C#5       x3211x
            C7#5      xx6554
            Fmaj7/9   x8798x






        B  Bend
        R  Release
        /  slide up
        \  slide down
        H  hammer-on
        P  pull-off
        ~  vibrato
        +  harmonic
        x  Mute note
        . - play note like a dot in standard notation
        ^ - ties two notes together
        (. Pause

       


comments
print report bad tab
7 comments total. Showing first comments.
0 reply
rikidoodle wrote on September 22 2007, 03:35 pm

Excellent tab. Thanks

0 reply
teddyy wrote on November 1 2007, 09:22 am

not excellent but good... there are some mistakes... that`s why i gave 4 stars...

0 reply
delta777 wrote on February 27 2008, 09:55 pm

it's a very good tab thanks! visit my profile delta777

I want to post or [tab]
guest
You may want to rate the tab now too:
select rating
Please do not post tabs as comments. Select "correction" instead!