Oops, an error
Loading. Please wait.

Tomorrow Never Knows solo tab

version 1
version 1

Solo

Whole song

Interactive

529 views 6 this week
2 commentsread comments
1 2 3 4 5
1 last vote to show rating
add to favorites
×
Save as Personal and add changes to this tab that will be seen only by you. Learn more ›
×
You can save this tab as Personal to edit and correct it or add notes. All changes will be seen only by you. Learn more »
launch autoscroll
font size
0
reset
how to read this tab
guitar tuner
edit
Autoscroll
slow
fast
+/-
esc
set tempo
stop
Author
Difficulty
The solo in Tomorrow Never Knows is played backwards. Here is the tab if you want it 
record it and have it played backwards just like in the song:

S= Slide down/ Slide up

-|---------------------------------------------------------------------|
-|--1-4--6---6-4-1------5--5--5-5-5-5--3--5--3-------------------------|
-|----------------------------------------------3--1-------------------|
-|----------------------------------------------------3----------------|
-|---------------------------------------------------------------------|
-|---------------------------------------------------------------------|

-|---------------------8-10s--------------------------------------------|
-|--1--1-4--6-6--------------------1--4--6-6--4-------------------------|
-|---------------4-------------------------------5--3------------3-5----|
-|------------------5---------------------------------------1-3---------|
-|--------------------------------------------------------3-------------|
-|----------------------------------------------------------------------|

But, if you're lazy like me, here it is backwards:

-|--------------------------------------------10s-8---------------------|
-|-------------------------4--6-6--1--4--------------------6-6--4-1--1--|
-|----5-3------------3--5-------------------------------4---------------|
-|---------3-1---------------------------------------5------------------|
-|-------------3--------------------------------------------------------|
-|----------------------------------------------------------------------|

-|----------------------------------------------------------------------|
-|------------------------3--5--3--5-5-5-5--5--5------1-4-6---6--4-1----|
-|------------------1--3------------------------------------------------|
-|---------------3------------------------------------------------------|
-|----------------------------------------------------------------------|
-|----------------------------------------------------------------------|


Happy Shredding,

Sam

            
            
Suggest correction
Creating personal tab
Creating personal tab
You can edit any tab online and save it as your Personal.

You can edit, replace or remove any tab part or add personal notes – all changes will be seen only by you.

Personal tabs can be accessed anytime from any device, even offline.
Learn more »
Give kudos to tab author, rate the tab!
1 2 3 4 5
comments
print report bad tab
2 comments total.
0 reply
Who66 1,196 Jan 22, 2016 07:37 AM

Isn't it the solo from Taxman (originally in D) slowed down to C-ish?

0 reply
sammytmartin 18 Sep 13, 2017 03:02 PM

No, they sound quite a bit different.

guest
You may want to rate the tab now too:
select rating
Wanna post a correction for this tab? Suggest correction