Oops, an error
Loading. Please wait.

Twist And Shout Bass Tab

version 3
version 3

Whole song

Interactive

154,903 views 258 this week
6 commentsread comments
1 2 3 4 5
excellent!
x 39
add to favorites
launch autoscroll
font size
0
reset
guitar tuner
Tab Pro tools
  • play this tab
  • loop segment
  • change instrument
  • show fretboard
  • metronome
×
Best way to learn
"Twist And Shout"
Autoscroll
slow
fast
+/-
esc
set tempo
stop
Contributor
Twist And Shout
The Beatles
Written by Phil Medley and Bert Russel; released on "Please Please Me" album.

This song is reminiscent to "La Bamba"; only the same three chords repeated 
endlessly. The Beatles made significant changes to the song, just listen to 
the Isley Brothers' original version.

Intro:
G|------- ------- ------- -------|------- ------- ------- -------|
D|-------------------------------|-------------------------------|
A|-------------------------------|----------------------------4--|
E|-------------------------------|--------------------5---7------|



G|------- ------- ----4-- -------|------- ------- ------- -------|
D|--------4-------5-------5---7--|----7---7---7---7---5---4------|
A|5-----------5------------------|----------------------------7--|
E|-------------------------------|5------------------------------|



G|------- ------- ----4-- -------|------- ------- ------- -------|
D|--------4-------5-------5---7--|----7---7---7---7---7---7---7--|
A|5-----------5------------------|-------------------------------|
E|-------------------------------|5------------------------------|
                                              Well,   it  up, ba-
                                                  shake
Verse:
G|------- ------- ------- 4------|------- ------- ------- -------|
D|--------4---7---5-----------5--|7---7-----------7---5---4------|
A|5------------------------------|--------4---7---------------7--|
E|-------------------------------|-------------------------------|
      by  now                                     twist   and
                  shake it up ba  -   by

G|------- ------- ------- 4------|------- ------- ------- -------|
D|--------4---7---5-----------5--|7---7-----------7---7---5---4--|
A|5------------------------------|--------4---7------------------|
E|-------------------------------|-------------------------------|
  shout                               Come    come    come  come
                                        on,     on,     on,   on
                  twist and   shout
G|------- ------- ------- 4------|------- ------- ------- -------|
D|--------4---7---5-----------5--|7---7-----------7---7---5---4--|
A|5------------------------------|--------4---7------------------|
E|-------------------------------|-------------------------------|
  ba- by      now                     come on and work it on  out
                  come on     ba  -   by

G|------- ------- ------- 4------|------- ------- ------- -------|
D|--------4---7---5-----------5--|7---7---7---7---7---7---5---4--|
A|5------------------------------|-------------------------------|
E|-------------------------------|-------------------------------|
                                      Well,       work it on  out,
                  work it on  out,    ooh

G|------- ------- ------- 4------|------- ------- ------- -------|
D|--------4---7---5-----------5--|7---7-----------7---5---4------|
A|5------------------------------|--------4---7---------------7--|
E|-------------------------------|-------------------------------|
              ho  -   ney             you know you look   so
                  work it on  out

G|------- ------- ------- 4------|------- ------- ------- -------|
D|--------4---7---5---5-------5--|7---7---7---7---7---7---5---4--|
A|5---5--------------------------|-------------------------------|
E|-------------------------------|-------------------------------|
  good                                You know you got    me
                  look so     good

G|------- ------- ------- 4------|------- ------- ------- -------|
D|--------4---7---5---5-------5--|7---7-----------7---5---4------|
A|5------------------------------|--------4---7---------------7--|
E|-------------------------------|-------------------------------|
  going       now                     just like I knew    you would
                  got me      go   -  ing

G|------- ------- ------- 4------|------- ------- ------- -------|
D|--------4---7---5-----------5--|7---7---7---7---7---7---7---4--|
A|5------------------------------|-------------------------------|
E|-------------------------------|-------------------------------|
                                              Well,   it  up, ba-
                                                  shake
Verse:    like I  knew you    would,  ooh
G|------- ------- ------- 4------|------- ------- ------- -------|
D|--------4---7---5-----------5--|7---7-----------7---7---5---4--|
A|5------------------------------|--------4---7------------------|
E|-------------------------------|-------------------------------|
      by  now                                     twist   and
                  shake it up ba  -   by

G|------- ------- ------- 4------|------- ------- ------- -------|
D|--------4---7---5-----------5--|7---7-----------7---5---4------|
A|5------------------------------|--------4---7---------------7--|
E|-------------------------------|-------------------------------|
  shout                               Come    come    come  come
                                        on,     on,     on,   on
                  twist and   shout
G|------- ------- ------- 4------|------- ------- ------- -------|
D|--------4---7---5-----------5--|7---7-----------7---5---4------|
A|5---5--------------------------|--------4---7---------------7--|
E|-------------------------------|-------------------------------|
  ba- by      now                     come on and work it on  out
                  come on     ba  -   by

G|------- ------- ------- 4------|------- ------- ------- -------|
D|--------4---7---5-----------5--|7---7---7---7---7---7---7---4--|
A|5------------------------------|-------------------------------|
E|-------------------------------|-------------------------------|
                                      You know you twist, little girl,
                  work it on  out,    ooh

G|------- ------- ------- 4------|------- ------- ------- -------|
D|--------4---7---5-----------5--|7-----------------------7------|
A|5------------------------------|--------4-------7--------------|
E|-------------------------------|----5--------------------------|
                                      you know you twist  so
                  twist, little girl

G|------- ------- ------- 4------|------- ------- ------- -------|
D|--------4---7---5-----------5--|7---7-----------7---7---5---4--|
A|5------------------------------|--------4---7------------------|
E|-------------------------------|-------------------------------|
  fine                                Come on and twist a little
                  twist so    fine

G|------- ------- ------- 4------|------- ------- ------- -------|
D|--------4---7---5-----------5--|7---7-----------7---7---5---4--|
A|5------------------------------|--------4---7------------------|
E|-------------------------------|-------------------------------|
  closer      now                     and let me  know    that you're
                  twist a little closer

G|------- ------- ------- 4------|------- ------- ------- -------|
D|--------4---7---5-----------5--|7---7---7---7---7---7---7---7--|
A|5------------------------------|-------------------------------|
E|-------------------------------|-------------------------------|
  mine
          let me  know you're mine,   ooh
Bridge (half-solo):
G|------- ------- ----4-- -------|------- ------- ------- -------|
D|----------------5-------5---7--|----7-------7---5---5---4---4--|
A|5-------5---5------------------|-------------------------------|
E|-------------------------------|5-------5----------------------|



G|------- ------- ----4-- -------|------- ------- ------- -------|
D|----------------5-------5---7--|7---------------7---5---4------|
A|5---5---5---5------------------|--------4---7---------------7--|
E|-------------------------------|----5--------------------------|



G|------- ------- ----4-- -------|------- ------- ------- -------|
D|--------4-------5-------5---7--|----7-------7---5-------4---4--|
A|5---5-------5------------------|-------------------------------|
E|-------------------------------|5------------------------------|



G|------- ------- ----4-- -------|------- ------- ------- -------|
D|--------4-------5-------5---5--|7-------7------/7---/7----/7---|
A|5-----------5------------------|-------------------------------|
E|-------------------------------|----5--------------------------|



G|------- ------- ------- -------|------- ------- ------- -------|
D|--------7-----------7----------|7---7---7---7---7---7---7---7--|
A|-------------------------------|-------------------------------|
E|5---5-------5---5-------5---5--|-------------------------------|
  Aaaaaaaaaaaaaaaaaaaaaaaaaaaaaaaaaaaaaaaaaaaaaaaaaaaaaaaaaaaaaaa


G|------- ------- ------- -------|------- ------- ------- -------|
D|7---7---7---7---7---7---7---7--|7---7---7---7---7---7---7---7--|
A|-------------------------------|-------------------------------|
E|-------------------------------|-------------------------------|
  aaaaaaaaaaaaaaaaaaaaaaaaaaaaaaaaaaaaaaaaaaaaaaaaaaaaaaaaaaaaaaa


G|------- ------- ------- -------|------- ------- ------- -------|
D|7---7---7---7---7---7---7---7--|7---7---7---7---7---5---4------|
A|-------------------------------|----------------------------7--|
E|-------------------------------|-------------------------------|
  Wow,        yeah,                                           ba-
  aaaaaaaaaaaaaaaaaaaaaaaaaaaaaaaaaaaaaaaaaaaaaaaaaaaaaaaaaaaaaaa
Verse:
G|------- ------- ------- 4------|------- ------- ------- -------|
D|--------4---7---5---5-------5--|7---7-----------7---5---4------|
A|5------------------------------|--------4---7---------------7--|
E|-------------------------------|-------------------------------|
      by  now                                     twist   and
                  shake it up ba  -   by

G|------- ------- ------- 4------|------- ------- ------- -------|
D|--------4---7---5---5-------5--|7---7---7---7---7---7---7---4--|
A|5---5--------------------------|-------------------------------|
E|-------------------------------|-------------------------------|
  shout                               Come    come    come  come
                                        on,     on,     on,   on
                  twist and   shout
G|------- ------- ------- 4------|------- ------- ------- -------|
D|--------4---7---5---5-------5--|7---------------7---5---4------|
A|5------------------------------|--------4---7---------------7--|
E|-------------------------------|----5--------------------------|
  ba- by      now                     come on and work it on  out
                  come on     ba  -   by

G|------- ------- ------- 4------|------- ------- ------- -------|
D|--------4---7---5---5-------5--|7---7---7---7---7---7---7---4--|
A|5---5--------------------------|-------------------------------|
E|-------------------------------|-------------------------------|
                                      You know you twist, little girl,
                  work it on  out,    ooh

G|------- ------- ------- 4------|------- ------- ------- -------|
D|--------4---7---5---5-------5--|7-------7-------7-------5---4--|
A|5------------------------------|-------------------------------|
E|-------------------------------|--------------------5----------|
                                      you know you twist  so
                  twist, little girl

G|------- ------- ------- 4------|------- ------- ------- -------|
D|--------4---7---5---5-------5--|7---------------7-------5---4--|
A|5------------------------------|-------------------------------|
E|-------------------------------|--------5----------------------|
  fine                                Come on and twist a little
                  twist so    fine

G|------- ------- ------- 4------|------- ------- ------- -------|
D|--------4---7---5---5-------5--|7---------------7-------5------|
A|5------------------------------|-------------------------------|
E|-------------------------------|--------5----------------------|
  closer      now                     and let me  know    that you're
                  twist a little closer

G|------- ------- ------- 4------|------- ------- ------- -------|
D|--------4---7---5-----------5--|7-------7-------7-------7---4--|
A|5------------------------------|-------------------------------|
E|-------------------------------|----5-------5-------5----------|
  mine                                Well,   it, shake   shake
                                          shake       it,     it,
Outro:    let me  know you're mine,   ooh
G|------- ------- ------- 4------|------- ------- ------- -------|
D|--------4---7---5---5-------5--|7---------------7---5---4------|
A|5---5--------------------------|----------------------------7--|
E|-------------------------------|----5---5---5------------------|
  ba- by      now                     Well,   it, shake   shake
                                          shake       it,     it,
                  shake it up ba  -   by
G|------- ------- ------- 4------|------- ------- ------- -------|
D|--------4---7---5---5-------5--|7---------------7---7---5---4--|
A|5---5--------------------------|-------------------------------|
E|-------------------------------|----5---5---5------------------|
  ba- by      now                     Well,   it, shake   shake
                                          shake       it,     it,
                  shake it up ba  -   by
G|------- ------- ------- 4------|------- ------- ------- -------|
D|--------4---7---5-----------5--|7---------------7---5---4------|
A|5------------------------------|--------4---7---------------5--|
E|-------------------------------|-------------------------------|
  ba- by      now
                  shake it up ba  -   by

G|------- ------- ------- -------|------- ------- ------- -------|
D|7-----------7-----------7------|7-----------7-----------7------|
A|-------------------------------|-------------------------------|
E|-------------------------------|-------------------------------|
  Aaaaaaaaaaaaaaaaaaaaaaaaaaaaaaaaaaaaaaaaaaaaaaaaaaaaaaaaaaaaaaa


G|------- ------- ------- -------|------- ------- ------- -------|
D|7-----------7-----------7------|7------------------------------|
A|-------------------------------|-------------------------------|
E|-------------------------------|-----5-----6----7----8-----9---|
  aaaaaaaaaaaaaaaaaaaaaaaaaaaaaaaaa


G|------- ------- ------- -------|------- ------- ------- -------|
D|-------------------------------|-------------------------------|
A|-------------------------------|-------------------------------|
E|10--------------10-------------|-------------------------------|

Please e-mail me for any corrections, or write a comment.
comments
print report bad tab
6 comments total. Showing first comments. show 1 bad comment
+2 reply
aig91 wrote on September 13 2007, 12:25 pm

Your tabs for Beatles songs are awesome! Keep on rockin'

+4 reply
gbeatle wrote on April 11 2009, 06:08 am

To Antei69:

First: I have Guitar Pro 5 on my computer. I also use it to transcribe the songs, and I have most of Beatles songs in Guitar Pro format too (I made them, partially of my bass tabs and partially from the tabs on Ultimate-Guitar).
Second: Let people decide what they want to see on UG. Guitar Pro 5 is not freeware anyway, to just download.
Third: Can you please write exactly where the mistakes are in my tab, and what are they?

I want to post or [tab]
guest
You may want to rate the tab now too:
select rating
Please do not post tabs as comments. Select "correction" instead!