Oops, an error
Loading. Please wait.
We have an official Wait tab made by UG professional guitarists. Check out the tab »
×
121 views 3 this week
no commentswrite comment
1 2 3 4 5
2 more votes to show rating
add to favorites
×
Save as Personal and add changes to this tab that will be seen only by you. Learn more ›
×
You can save this tab as Personal to edit and correct it or add notes. All changes will be seen only by you. Learn more »
launch autoscroll
font size
0
reset
how to read this tab
guitar tuner
backing track
0:00
0:00
edit
Autoscroll
slow
fast
+/-
esc
set tempo
stop
Author
Difficulty
[Verse]

          It's been a long time, Now I'm, coming back home 
e|---------------------------------------------------------------------------|
B|--------------------5------4----3---2--------------------------------------|
G|--------------------6------4----4---2----4--------2------------------------|x2
D|-----------------------------------------3--------4------------------------|
A|---------------------------------------------------------------------------|
E|---------------------------------------------------------------------------|


[Chorus]

  Wait        Until I come back to your side, we'll forget the tears we cried

    A     A6     A                        A6            A          C#7       F#
e|---------2-------------------------------2------------------------0---------2----|
B|--2-----2-2----2------------------------2-2-----------2-----------2---------2----|
G|--2-----2------2------------------------2-------------2-----------4---------3----|
D|--2-----2------2------------------------2-------------2-----------3---------4----|
A|--0-----0------0------------------------0-------------0-----------4---------4----|
E|----------------------------------------------------------------------------2----|


[Bridge] 

          I feel as though, you ought to know.....
e|---------------------------------------------------------------------------|
B|---------------------------------------------------------------------------|
G|---------------------------------------------------------------------------|
D|---------------------------------------------------------------------------|
A|---------------------- 7-7-7-7-7-7-7-7-------------------------------------|
E|-------7-7-7-7-7-7-7-7----------------5-5-5-5-5-5-5-5-2-2-2-2-2-2-2-2------|

(bridge is played twice, second time ends with C#7 chord)
                    And know that you will wait for me
e|---------------------------------------------------0---0--------------------------|
B|---------------------------------------------------2---2--------------------------|
G|---------------------------------------------------4---4--------------------------|
D|---------------------------------------------------3---3--------------------------|
A|------------------7-7-7-7-7-7-7-7------------------4---4--------------------------|
E|--7-7-7-7-7-7-7-7-----------------5-5-5-5--5--5--5--------------------------------|


            
            
Suggest correction
Creating personal tab
Creating personal tab
You can edit any tab online and save it as your Personal.

You can edit, replace or remove any tab part or add personal notes – all changes will be seen only by you.

Personal tabs can be accessed anytime from any device, even offline.
Learn more »
Give kudos to tab author, rate the tab!
1 2 3 4 5
comments
print report bad tab
guest
You may want to rate the tab now too:
select rating
Wanna post a correction for this tab? Suggest correction