Oops, an error
Loading. Please wait.

What Goes On bass

version 1
version 1

Whole song

Interactive

3,608 views 9 this week
no commentswrite comment
1 2 3 4 5
x 3
add to favorites
×
Save as Personal and add changes to this tab that will be seen only by you. Learn more ›
×
You can save this tab as Personal to edit and correct it or add notes. All changes will be seen only by you. Learn more »
launch autoscroll
font size
0
reset
guitar tuner
backing track
0:00
0:00
edit
Autoscroll
slow
fast
+/-
esc
set tempo
stop
Author
What Goes On
The Beatles
Written by John Lennon, Paul McCartney and Ringo Starr; released on "Rubber 
Soul" album

A good country song. It is to be regretted that many people hate it.

Intro:
G|------ ------ ------ ------|------ ------ ------ ------|
D|---------------------------|---------------------------|
A|---------------------------|---------------------------|
E|---------------------------|---------------------------|



G|------ ------ ------ ------|------ ------ ------ ------|
D|---------------------------|---------------------------|
A|7------7-------------7-----|--------------9------------|
E|--------------7------------|7------7-------------7-----|



G|------ ------ ------ ------|------ ------ ------ ------|
D|---------------------------|---------------------------|
A|7--------------------5-----|7----------7---------5-----|
E|--------------7------------|--------------7------------|
                                            What goes  on

Refrain:
G|------ ------ ------ ------|------ ------ ------ ------|
D|---------------------------|---------------------------|
A|7------7-------------5-----|7------7-------------5-----|
E|--------------7------------|--------------7------------|
                                            in  your   heart?


G|------ ------ ------ ------|------ ------ ------ ------|
D|---------------------------|---------------------------|
A|7------7-------------5-----|7------7-------------5-----|
E|--------------7------------|--------------7------------|
                                            What goes  on


G|------ ------ ------ ------|------ ------ ------ ------|
D|---------------------------|---------------------------|
A|7------7-------------5-----|7------7-------------5-----|
E|--------------7------------|--------------7------------|
                                            in  your   mind?


G|------ ------ ------ ------|------ ------ ------ ------|
D|7------7-------------5-----|7------7-------------7-----|
A|--------------7------------|--------------7------------|
E|---------------------------|---------------------------|
                                            You are    tea-


G|------ ------ ------ ------|------ ------ ------ ------|
D|---------------------------|---------------------------|
A|7------7-------------5-----|7------7-------------5-----|
E|--------------7------------|--------------7------------|
                                     ring   me  a  -   part


G|------ ------ ------ ------|------ ------ ------ ------|
D|---------------------------|---------------------------|
A|7------7-------------5-----|7------7-------------5-----|
E|--------------7------------|--------------7------------|
                                            When you   treat


G|------ ------ ------ ------|------ ------ ------ ------|
D|---------------------------|---------------------------|
A|7------7-------------5-----|7------7-------------5-----|
E|--------------7------------|--------------7------------|
                                     me     so  un  -  kind,


G|------ ------ ------ ------|------ ------ ------ ------|
D|7------7-------------5-----|7------7-------------7-----|
A|--------------7------------|--------------7------------|
E|---------------------------|---------------------------|
                                            What goes  on


G|------ ------ ------ ------|------ ------ ------ ------|
D|9------9-------------------|9------9------9-p-7--------|
A|--------------9------9-----|---------------------9-----|
E|---------------------------|---------------------------|
                                            in  your   mind?


G|------ ------ ------ ------|------ ------ ------ ------|
D|---------------------------|---------------------------|
A|7------7-------------5-----|7------7-------------5-----|
E|--------------7------------|--------------7------------|
                                                       The

Verse:
G|------ ------ ------ ------|------ ------ ------ ------|
D|---------------------------|---------------------------|
A|7--------------------5-----|7--------------------7-----|
E|--------------7------------|--------------7------------|
  o - ther   day       I      saw    you    as     I
  Ooooooooooooooooooooooooooooooooooooooooooooooooooooooo

G|------ ------ ------ ------|------ ------ ------ ------|
D|7----------7---------5-----|7----------7---------7-----|
A|--------------7------------|--------------7------------|
E|---------------------------|---------------------------|
  walked a - long      the road,                       But
  ooooooooooooooooooooooooooo

G|------ ------ ------ ------|------ ------ ------ ------|
D|---------------------------|---------------------------|
A|7--------------------5-----|7--------------------7-----|
E|--------------7------------|--------------7------------|
  when I     saw       him    with   you,   I      could
  Ooooooooooooooooooooooooooooooooooooooooooooooooooooooo

G|------ ------ ------ ------|------ ------ ------ ------|
D|7--------------------5-----|7----------7---------5-----|
A|--------------7------------|--------------7------------|
E|---------------------------|---------------------------|
  feel   my     fu  -  ture fold            It's   so  ea-
  ooooooooooooooooooooooooooo

G|------ ------ ------ ------|------ ------ ------ ------|
D|7----------7---------5-----|9----------9---------9-----|
A|--------------7------------|--------------9------------|
E|---------------------------|---------------------------|
  sy     for    a   girl      like   you    to  lie,
  Ooooooooooooooooooooooooooooooooooooooooooooooooooooooo

G|------ ------ ------ ------|------ ------ ------ ------|
D|---------------------------|---------------------------|
A|7--------------------5-----|7--------------------7-----|
E|--------------7------------|--------------7------------|
                                            tell me,   why
  ooooooooooooooooooooooooooo

G|------ ------ ------ ------|------ ------ ------ ------|
D|9--------------------------|9--------------------9-----|
A|--------------9------------|--------------9------------|
E|---------------------------|---------------------------|
                                            What goes  on

Refrain:
G|------ ------ ------ ------|------ ------ ------ ------|
D|---------------------------|---------------------------|
A|7------7-------------5-----|7------7-------------5-----|
E|--------------7------------|--------------7------------|
                                            in  your   heart?


G|------ ------ ------ ------|------ ------ ------ ------|
D|---------------------------|---------------------------|
A|7------7-------------5-----|7------7-------------5-----|
E|--------------7------------|--------------7------------|
                                            What goes  on


G|------ ------ ------ ------|------ ------ ------ ------|
D|---------------------------|---------------------------|
A|7------7-------------5-----|7------7-------------5-----|
E|--------------7------------|--------------7------------|
                                            in  your   mind?


G|------ ------ ------ ------|------ ------ ------ ------|
D|7------7-------------5-----|7------7-------------5-----|
A|--------------7------------|--------------7------------|
E|---------------------------|---------------------------|
                                            You are    tea-


G|------ ------ ------ ------|------ ------ ------ ------|
D|---------------------------|---------------------------|
A|7------7-------------5-----|7------7-------------5-----|
E|--------------7------------|--------------7------------|
                                     ring   me  a  -   part


G|------ ------ ------ ------|------ ------ ------ ------|
D|---------------------------|---------------------------|
A|7------7-------------5-----|7------7-------------5-----|
E|--------------7------------|--------------7------------|
                                            When you   treat


G|------ ------ ------ ------|------ ------ ------ ------|
D|---------------------------|---------------------------|
A|7------7-------------5-----|7------7-------------5-----|
E|--------------7------------|--------------7------------|
                                     me     so  un  -  kind,


G|------ ------ ------ ------|------ ------ ------ ------|
D|7------7-------------5-----|7------7-------------7-----|
A|--------------7------------|--------------7------------|
E|---------------------------|---------------------------|
                                            What goes  on


G|------ ------ ------ ------|------ ------ ------ ------|
D|9------9-------------------|9------9-------------9-----|
A|--------------9------9-----|--------------9------------|
E|---------------------------|---------------------------|
                                            in  your   mind?


G|------ ------ ------ ------|------ ------ ------ ------|
D|---------------------------|---------------------------|
A|7------7-------------------|7------7-------------5-----|
E|--------------7------7-----|--------------7------------|
                                                       I

Verse:
G|------ ------ ------ ------|------ ------ ------ ------|
D|---------------------------|---------------------------|
A|7------7-------------5-----|7------7-------------5-----|
E|--------------7------------|--------------7------------|
  met    you    in     the mor   -   ning,  wai -  ting
  Ooooooooooooooooooooooooooooooooooooooooooooooooooooooo

G|------ ------ ------ ------|------ ------ ------ ------|
D|7------7-------------5-----|7------7-------------7-----|
A|--------------7------------|--------------7------------|
E|---------------------------|---------------------------|
  for    the tides     of  time,                       But
  ooooooooooooooooooooooooooo

G|------ ------ ------ ------|------ ------ ------ ------|
D|---------------------------|---------------------------|
A|7------7-------------5-----|7------7-------------5-----|
E|--------------7------------|--------------7------------|
  now    the tide      is     tur -  ning,  I      could
  Ooooooooooooooooooooooooooooooooooooooooooooooooooooooo

G|------ ------ ------ ------|------ ------ ------ ------|
D|7------7-------------5-----|7------7-------------5-----|
A|--------------7------------|--------------7------------|
E|---------------------------|---------------------------|
  see        that I was    blind            It's   so  ea-
  ooooooooooooooooooooooooooo

G|------ ------ ------ ------|------ ------ ------ ------|
D|7------7-------------7-----|9------9-------------9-----|
A|--------------7------------|--------------9------------|
E|---------------------------|---------------------------|
  sy     for    a   girl      like   you    to  lie,
  Ooooooooooooooooooooooooooooooooooooooooooooooooooooooo

G|------ ------ ------ ------|------ ------ ------ ------|
D|---------------------------|---------------------------|
A|7------7-------------5-----|7------7-------------7-----|
E|--------------7------------|--------------7------------|
                                            tell me,   why
  ooooooooooooooooooooooooooo

G|------ ------ ------ ------|------ ------ ------ ------|
D|9------9-------------------|9------9-------------------|
A|--------------9------9-----|--------------9------9-----|
E|---------------------------|---------------------------|
                                            What goes  on

Refrain (solo):
G|------ ------ ------ ------|------ ------ ------ ------|
D|-------6------7------9-----|-------6------7------9-----|
A|7--------------------------|7--------------------------|
E|---------------------------|---------------------------|
                                            in  your   heart?


G|------ ------ ------ ------|------ ------ ------ ------|
D|-------6------7------9-----|-------6------7------9-----|
A|7--------------------------|7--------------------------|
E|---------------------------|---------------------------|



G|------ ------ ------ ------|------ ------ ------ ------|
D|-------6------7------9-----|-------6------9------6-----|
A|7--------------------------|7--------------------------|
E|---------------------------|---------------------------|



G|------ ------ ------ ------|------ ------ ------ ------|
D|---------------------------|-------4------5------6-----|
A|-------4------5------6---6-|7--------------------------|
E|5--------------------------|---------------------------|



G|------ ------ ------ ------|------ ------ ------ ------|
D|-------6------7------8-----|-------6------7------8-----|
A|7--------------------------|7--------------------------|
E|---------------------------|---------------------------|



G|------ ------ ------ ------|------ ------ ------ ------|
D|-------6------7------8-----|---------------------------|
A|7--------------------------|7------4-------------------|
E|---------------------------|--------------7------4-----|



G|------ ------ ------ ------|------ ------ ------ ------|
D|-------6------7------9-----|-------6------7------9-----|
A|7--------------------------|7--------------------------|
E|---------------------------|---------------------------|



G|------ ------ ------ ------|------ ------ ------ ------|
D|---------------------------|---------------------------|
A|-------4------5------6-----|7------5------4------------|
E|5--------------------------|---------------------7-----|



G|------ ------ ------ ------|------ ------ ------ ------|
D|---------------------------|---------------------------|
A|-------6------7------7-h-9-|-------6------7------7-h-9-|
E|7--------------------------|7--------------------------|



G|------ ------ ------ ------|------ ------ ------ ------|
D|---------------------------|---------------------------|
A|7------7-------------5-----|7------7-------------5-----|
E|--------------7------------|--------------7------------|
                                                       I

Verse:
G|------ ------ ------ ------|------ ------ ------ ------|
D|---------------------------|---------------------------|
A|7--------------------5-----|7--------------------7-----|
E|--------------7------------|--------------7------------|
  used   to  think     of     no     one else,     but
  Ooooooooooooooooooooooooooooooooooooooooooooooooooooooo

G|------ ------ ------ ------|------ ------ ------ ------|
D|7--------------------5-----|7--------------------7-----|
A|--------------7------------|--------------7------------|
E|---------------------------|---------------------------|
  you    were just     the same,                       You
  ooooooooooooooooooooooooooo

G|------ ------ ------ ------|------ ------ ------ ------|
D|---------------------------|---------------------------|
A|7--------------------5-----|7----------7---------7-----|
E|--------------7------------|--------------7------------|
  didn't     e    -    ven    think  of  me        as
  Ooooooooooooooooooooooooooooooooooooooooooooooooooooooo

G|------ ------ ------ ------|------ ------ ------ ------|
D|7----------7---------5-----|7----------7---------5-----|
A|--------------7------------|--------------7------------|
E|---------------------------|---------------------------|
  some   one    with the   name             Did    you mean
  ooooooooooooooooooooooooooo

G|------ ------ ------ ------|------ ------ ------ ------|
D|7----------7---------7-----|9----------9---------9-----|
A|--------------7------------|--------------9------------|
E|---------------------------|---------------------------|
         to  break  my     heart,    and    watch  me  die?
  Ooooooooooooooooooooooooooooooooooooooooooooooooooooooo

G|------ ------ ------ ------|------ ------ ------ ------|
D|---------------------------|---------------------------|
A|7--------------------5-----|7--------------------7-----|
E|--------------7------------|--------------7------------|
                                            tell me,   why
  ooooooooooooooooooooooooooo

G|------ ------ ------ ------|------ ------ ------ ------|
D|9------9-------------------|9------9-------------9-----|
A|--------------9------9-----|--------------9------------|
E|---------------------------|---------------------------|
                                            What goes  on

Refrain:
G|------ ------ ------ ------|------ ------ ------ ------|
D|---------------------------|---------------------------|
A|7------7-------------5-----|7------7-------------5-----|
E|--------------7------------|--------------7------------|
                                            in  your   heart?


G|------ ------ ------ ------|------ ------ ------ ------|
D|---------------------------|---------------------------|
A|7------7-------------5-----|7------7-------------5-----|
E|--------------7------------|--------------7------------|
                                            What goes  on


G|------ ------ ------ ------|------ ------ ------ ------|
D|---------------------------|---------------------------|
A|7------7-------------5-----|7------7-------------5-----|
E|--------------7------------|--------------7------------|
                                            in  your   mind?


G|------ ------ ------ ------|------ ------ ------ ------|
D|7------4-------------------|---------------------------|
A|--------------7------4-----|-------4------5------6-----|
E|---------------------------|5--------------------------|
                                            You are    tea-


G|------ ------ ------ ------|------ ------ ------ ------|
D|---------------------------|---------------------------|
A|7-------------7------------|7----------7---------5-----|
E|---------------------7-----|--------------7------------|
                                     ring   me  a  -   part


G|------ ------ ------ ------|------ ------ ------ ------|
D|---------------------------|---------------------------|
A|7------7-------------5-----|7------7-------------5-----|
E|--------------7------------|--------------7------------|
                                            When you   treat


G|------ ------ ------ ------|------ ------ ------ ------|
D|---------------------------|---------------------------|
A|7------7-------------5-----|7------7-------------5-----|
E|--------------7------------|--------------7------------|
                                     me     so  un  -  kind,


G|------ ------ ------ ------|------ ------ ------ ------|
D|7------7-------------5-----|7------7-------------7-----|
A|--------------7------------|--------------7------------|
E|---------------------------|---------------------------|
                                            What goes  on


G|------ ------ ------ ------|------ ------ ------ ------|
D|9------------------------9\|7---5---------5------------|
A|---------------------------|-------7-------------7-----|
E|-------7------7------7-----|---------------------------|
                                            in  your   mind?


G|------ ------ ------ ------|------ ------ ------ ------|
D|---------------------------|---------------------------|
A|7------7-------------5-----|7------7-------------5-----|
E|--------------7------------|--------------7------------|
                                            In  your   mind?

Outro:
G|------ ------ ------ ------|------ ------ ------ ------|
D|---------------------------|---------------------------|
A|7------7-------------------|7------7-------------------|
E|--------------7------7-----|--------------7------7-----|
                                            In  your   mind?


G|------ ------ ------ ------|------ ------ ------ ------|
D|---------------------------|---------------------------|
A|7------7-------------5-----|7----------7---------------|
E|--------------7------------|---------------------------|

Please e-mail me for any corrections.
Suggest correction
Creating personal tab
Creating personal tab
You can edit any tab online and save it as your Personal.

You can edit, replace or remove any tab part or add personal notes – all changes will be seen only by you.

Personal tabs can be accessed anytime from any device, even offline.
Learn more »
Give kudos to tab author, rate the tab!
1 2 3 4 5
comments
print report bad tab
guest
You may want to rate the tab now too:
select rating
Wanna post a correction for this tab? Suggest correction