Oops, an error
Loading. Please wait.

While My Guitar Gently Weeps Tab

version 1
version 1
270,137 views 327 this week
13 commentsread comments
1 2 3 4 5
x 61
add to favorites
launch autoscroll
font size
0
reset
how to read this tab
guitar tuner
×
Best way to learn
"While My Guitar Gently Weeps"
Autoscroll
slow
fast
+/-
esc
set tempo
stop
C            E7               Am           Am7/G        Am6/F#
e|------------|----------10h12-|-8~---------|------8-8~~~|~~~~~-------|
B|-----13\10--|-8h10-/13-------|---10-------|-8h10-------|------------|
G|------------|----------------|------------|------------|------------|
D|------------|----------------|------------|------------|------------|
A|------------|----------------|------------|------------|------------|
E|------------|----------------|------------|------------|------------|

   Fmaj7        Am           G                  D            E7
e|------8-8~~~|~~~~--------|-8-10h12p10-8-12~~|~~--15\----|---17~~~~~-|
B|-8h10-------|-------8h10-|------------------|---------15p13---------|
G|------------|------------|------------------|-----------|-----------|
D|------------|------------|------------------|-----------|-----------|
A|------------|------------|------------------|-----------|-----------|
E|------------|------------|------------------|-----------|-----------|

      Am              Am7                 Am6
e|-17-17~~~-17p15h17----------15-----|----------15-------|
B|---------------|---17-15h17----15~-|-13h15-17----17p15-|
G|---------------|-------------------|-------------------|
D|---------------|-------------------|-------------------|
A|---------------|-------------------|-------------------|
E|---------------|-------------------|-------------------|

      Fmaj7               Am                   G
e|-------------------|--------------------|-----------------|
B|-13~~--13----------|-13-13--------------|-----------------|
G|----------14p12h14-|--------------12----|-----------------|
D|-------------------|--------12h14----14-|-12-12--10h12p10-|
A|-------------------|--------------------|-----------------|
E|-------------------|--------------------|-----------------|

      C                   E7
e|-------------------|-------------17-15-17-17p15h17-|
B|-------------13-13-|-15-15-17-17-------------------|
G|----12-14-14-------|-------------------------------|
D|-14----------------|-------------------------------|
A|-------------------|-------------------------------|
E|-------------------|-------------------------------|



************************************

| h  Hammer-on
| p  Pull-off
| /  Slide up
| \  Slide down
| ~  Vibrato

************************************
Suggest correction
comments
print report bad tab
13 comments total. Showing first comments.
0 reply
gooseman 10 Aug 19, 2004 08:00 PM

good tab

0 reply
gooseman 10 Feb 04, 2005 07:00 PM

yea whyd it only get 3 stars

+1 reply
flibit 82 Apr 03, 2006 10:30 AM

sounds pretty good, but the acurate version is on the full tab version 2. It has a lot of bends that sound cool but its harder to play

guest
You may want to rate the tab now too:
select rating
Wanna post a correction for this tab? Suggest correction