Oops, an error
Loading. Please wait.
We have an official With A Little Help From My Friends tab made by UG professional guitarists. Check out the tab »
×
54,971 views 150 this week
2 commentsread comments
1 2 3 4 5
x 22
add to favorites
×
Save as Personal and add changes to this tab that will be seen only by you. Learn more ›
×
You can save this tab as Personal to edit and correct it or add notes. All changes will be seen only by you. Learn more »
launch autoscroll
font size
0
reset
guitar tuner
backing track
0:00
0:00
edit
Autoscroll
slow
fast
+/-
esc
set tempo
stop
Author
    ---------------------------------------------------

    THE BEATLES - WITH A LITTLE HELP FROM MY FRIENDS 
                 (Lennon & McCartney) From SGT PEPPER'S 
                  LONELY HEARTS CLUB BAND album. 
                  Released on the 1st of June, 1967.

    ---------------------------------------------------

    Bass Tab by PJVillanueva





    What would you think if I sang out of tune
    Would you stand up and walk out on me
    Lend me your ears and I'll sing you a song
    And I'll try not to sing out of key

    Oh I get by with a little help from my friends
    Hmmm I get high with a little help from my friends
    Hmmm Going to try with a little help from my friends

    What do I do when my love is away
    (Does it worry you to be alone)
    How do I feel by the end of the day
    (Are you sad because you're on your own)
    No I get by with a little help from my friends ... 

    Do you need anybody
    I need somebody to love
    Could it be anybody
    I want somebody to love

    Would you believe in a love at first sight
    Yes I'm certain that it happens all the time
    What do you see when you turn out the light
    I can't tell you, but I know it's mine
    Oh I get by with a little help from my friends ...

    Do you need anybody
    I just need somebody to love
    Could it be anybody
    I want somebody to love

    I get by with a little help from my friends
    Hmmm going to try with a little help from my friends
    Oh I get high with a little help from my friends 
    Yes I get by with a little help from my friends
    With a little help from my friends


     12/8

     INTRO


  G|------- ------- ------- -------|------- ------- ------- -------|
  D|-------------------------------|-------------------------------|
  A|-------------------------------|-------------------------------|
  E|-------------------------------|-------------------------------|
    


  G|------- ------- ------- -------|------- ------- ------- -------|
  D|-------------------------------|-------------------------------|
  A|-------------------------------|-------------------------------|
  E|-------------------------------|-------------------------------|

 
    00:08

  G|9------ ------- 8------ -------|------- ------- ------- -------|
  D|-------------------------------|11--\--------------------------|
  A|-------------------------------|----------------9--------------|
  E|-------------------------------|-------------------------------|
    What would   think   if I    sang    out     tune,   would   stand
            you                             of              you



  G|11----- ------- ------- -------|9------ ----11- ----9-\ 6------|
  D|----------------9--------------|-----------------------------9-|
  A|-------------------------------|-------------------------------|
  E|-------------------------------|-------------------------------|
         up and  walk    out     me?
                            on



  G|------- ------- ------- -------|------- ------- ----9-\ -------|
  D|----------------9--------------|------------9-H-11-------------|
  A|7------------------------------|9------------------------------|
  E|-------------------------------|-------------------------------|
    Lend me your ears    and     sing    you     song,   and     try
                            I'll            a               I'll



  G|------- ------- ------- -------|------ /9----- /9----- /9\-----|
  D|----------------9--------------|-------------------------------|
  A|9------------------------------|7----------------------------4-|
  E|-------------------------------|-------------------------------|
         not     sing    out     key            Oh,     I   get  by
            to              of

    00:26

  G|------- ------- ------- -------|------- ------- ------- -------|
  D|----------------7-------7------|-------------------------------|
  A|5-------5--------------------6-|7-------7-------7----x--7----4-|
  E|-------------------------------|-------------------------------|
      with  little       from    friends         Hmmmmm  I  Get  high
         a     help         my



  G|------- ------- ------- -------|------- ------- ------- -------|
  D|----------------7----x--7------|-------------------------------|
  A|5-------5--------------------6-|7-------5-------4--------------|
  E|-------------------------------|------------------------7--\---|
      with  little       from    friends         Hmmmmm     going  
         a     help         my                                 to try




  G|------- ------- ------- -------|-----9- 7------ 6------ -------|
  D|-------------------------------|------------------------9----7/|
  A|--------4-------7----x--4------|7------------------------------|
  E|5----------------------------7-|-------------------------------|
      with  little       from    friends          
         a     help         my                       



    X    X  x    X       x       X  X    x       X       X  x    x
  G|------- ------- ------- -------|------- ------- ------- -------|
  D|9------------------------------|-------------------------------|
  A|-------------------------------|-------------------------------|
  E|-------------------------------|-------------------------------|



    00:43

  G|------- ------- ------- -------|------- ----13- ---P11\ 9------|
  D|----------------9--------------|----------------------------11-|
  A|7------------------------------|9------------------------------|
  E|-------------------------------|-------------------------------|
    What do I    do      when    love    is away
                            my
                                                        (Does   worry 
                                                            it

  G|------- ------- ------- -------|------- ----/9- -----6- -------|
  D|----------------9--------------|------------------------9------|
  A|9----------------------------6-|7------------------------------|
  E|-------------------------------|-------------------------------|

            you  to be      alone)



  G|------- ------- ------- -------|------- ----13- ----11- 9------|
  D|----------------9--------------|----------------------------11-|
  A|7------------------------------|9------------------------------|
  E|-------------------------------|-------------------------------|
    How  do I    feel    by the  end     of the  day
                                                       (Are you  sad 



  G|------- ------- ------- -------|------ /9------ 9------ 9\-----|
  D|----------------9--------------|-------------------------------|
  A|-9---------------------------6-|7----------------------------4-|
  E|-------------------------------|-------------------------------|
                                                 No,     I  get  by
         because you're     your own)
                    on

    01:00

  G|------- ------- ------- -------|------- ------- ------- -------|
  D|----------------7-------7------|-------------------------------|
  A|5-------5----5---------------6-|7-------7-------7-------7----4-|
  E|-------------------------------|-------------------------------|
      with  little       from    friends         Hmmmmm     Get  high
         a     help         my



  G|------- ------- ------- -------|------- ------- ------- -------|
  D|----------------7-------7------|-------------------------------|
  A|5-------5--------------------6-|7-------7-------7-------7----4-|
  E|-------------------------------|---------------------5---------|
      with  little       from    friends         Hmmmmm     going  
         a     help         my                                 to try



  G|------- ------- ------- -------|------- ------- ------- -------|
  D|-------------------------------|-------------------------------|
  A|--------4-------7----x--4------|7-------7-------7-------7------|
  E|5----------------------------7-|-------------------------------|
      with  little       from    friends            Do   you     need   
         a     help         my                     (Do   you     need

    01:13

  G|------- -----6- -----4- ---3---|------- ------- ------- -------|   
  D|-----------------------------6-|4------------------------------|
  A|4------------------------------|-------------7-------6--4------|
  E|-------------------------------|-------------------------------| 
                    anybody                                      I
                    anybody)



  G|------- ------- ------- -------|------- ------- ------- -------| 
  D|-------------------------------|7-------7-------7-------7----x-|
  A|7-------7----x-/5-------5----5-|-------------------------------|
  E|-------------------------------|-------------------------------|
    need    somebody        to   love               Could        be
                                                         it
                                                   (Could        be
                                                         it

  G|------- -----6- -----4\ 3------|------- ------- ------- -------| 
  D|-----------------------------6-|4------------------------------|
  A|4------------------------------|-------------7-------6--4----/-|
  E|-------------------------------|-------------------------------|
                    anybody                                      I
                    anybody)



  G|------- ------- ------- -------|------- ------- ------- -------| 
  D|-------------------------------|7-------7-------7-------7------|
  A|7-------7-------5-------5------|-----7-------7-------7-------7-|
  E|-------------------------------|-------------------------------|
    want    somebody        to   love


    01:30

  G|------- ------- ------- -------|------- ------- -----9- \------|
  D|----------------9----9---------|-------------9-H11-------------|
  A|7------------------------------|9------------------------------|
  E|-------------------------------|-------------------------------|
                                                         Yes, 
                                                            I'm  cer..
   (Would    believe      in a    love   at first      
         you                                     sight)   


  G|------- ------- ------- -------|------- ----11\ 9------ -------|
  D|----------------9--------------|--------------------11--9------|
  A|9------------------------------|7------------------------------|
  E|-------------------------------|-------------------------------|
         tain               all  time
            that happens       the
               it


  G|------- ------- ------- -------|------- ------- -----9- \------|
  D|----------------9--------------|-------------9-H11-------------|
  A|7------------------------------|9------------------------------|
  E|-------------------------------|-------------------------------|
                                                         I  can't
                                                                 tell
   (What do you  see     when            out     light)
                            you  turn       the


  G|------- ------- ------- -------|------ /9----- /9------ /9\----|
  D|----------------9--------------|-----------------------------4-|
  A|9------------------------------|7------------------------------|
  E|-------------------------------|-------------------------------|
         you,  I know       it's mine            Oh,     I  get  by
            but


    01:47

  G|------- ------- ------- -------|------- ------- ------- -------|
  D|----------------7----x--7------|-------------------------------|
  A|5-------5--------------------6/|7-------7-------7----x--7----4-|
  E|-------------------------------|-------------------------------|
      with  little       from    friends         Hmmmmm  I  Get  high
         a     help         my



  G|------- ------- ------- -------|------- ------- ------- -------|
  D|----------------7----x--7------|-------------------------------|
  A|5-------5--------------------6-|7-------5-------4--------------|
  E|-------------------------------|------------------------7------|
      with  little       from    friends         Hmmmmm     going  
         a     help         my                                 to try



  G|------- ------- ------- -------|------- ------- ------- -------|
  D|-------------------------------|-------------------------------|
  A|--------4-------7----x--4------|7-------7-------7----x--7------|
  E|5----------------------------7-|-------------------------------|
      with  little       from    friends            Do   you     need   
         a     help         my                     (Do   you     need

    02:00

  G|------- -----6- -----4\ 3------|------- ------- ------- -------|  
  D|-----------------------------6-|4------------------------------|
  A|4------------------------------|-------------7-------6--4------|
  E|-------------------------------|-------------------------------|
                    anybody                                      I
                    anybody)



  G|------- ------- ------- -------|------- ------- ------- -------| 
  D|-------------------------------|7-------7-------7-------7------|
  A|7-------7-------5-------5----5-|-------------------------------|
  E|-------------------------------|-------------------------------|
    just    need    someone     to  love
                                                   (Could        be
                                                         it


  G|------- -----6- -----4\ 3------|------- ------- ------- -------| 
  D|-----------------------------6-|4------------------------------|
  A|4------------------------------|-------------7-------6--4------|
  E|-------------------------------|-------------------------------|
                                                                 I
                    anybody


  G|------- ------- ------- -------|------- ------- ------- -------| 
  D|-------------------------------|7-------7-------7-------7------|
  A|7-------7-------5-------5----5-|-----------------------------4-|
  E|-------------------------------|-------------------------------|
    want    somebody        to   love            Oh,     I  get  by


    02:17      

  G|------- ------- ------- -------|------- /9----- /9----- /9\----|
  D|----------------7-------7------|-----------------------------4-|
  A|5-------5----x---------------6-|7------------------------------|
  E|-------------------------------|-------------------------------|
      with  little       from    friends         Hmmmmm     going
         a     help         my                                to try



  G|------- ------- ------- -------|------- /9----- /9----- /9\----|
  D|----------------7----x--7------|-------------------------------|
  A|5-------5--------------------6-|7------------------------------|
  E|-------------------------------|-------------------------------|
      with  little       from    friends         Oh,     I  Get  high
         a     help         my



  G|------- ------- ------- -------|------- ------- ------- -------|
  D|-------------------------------|-------------------------------|
  A|--------4-------7----x--4------|7-------7-------7----x--7----0-|
  E|5----------------------------7-|-------------------------------|
      with  little       from    friends         Yes,    I  get  by
         a     help         my



  G|------- ------- ------- -------|------- ------- ------- -------|
  D|-------------------------------|7------------------------------|
  A|5------------------------------|-------------------------------|
  E|-------------------------------|-------------------------------|
      with  little       from    friends a  little       from  friends
         a     help         my        with       help       my



  G|------- ------- ------- -------|------- ------- ------- -------|
  D|5-------5-------5-------5------|7-------7-------7-------7------|
  A|-----5---------------5---------|-----7---------------7---------|
  E|-------------------------------|-------------------------------|



   (.

  G|9------ ------- ------- -------|------- ------- ------- -------|
  D|9------------------------------|-------------------------------|
  A|7------------------------------|-------------------------------|
  E|-------------------------------|-------------------------------|








        B  Bend
        R  Release
        /  slide up
        \  slide down
        H  hammer-on
        P  pull-off
        ~  vibrato
        +  harmonic
        x  Mute note
        . - play note like a dot in standard notation
        ^ - ties two notes together
        (.  Pause



            
            
Suggest correction
Creating personal tab
Creating personal tab
You can edit any tab online and save it as your Personal.

You can edit, replace or remove any tab part or add personal notes – all changes will be seen only by you.

Personal tabs can be accessed anytime from any device, even offline.
Learn more »
comments
print report bad tab
2 comments total.
0 reply
dhizzle2555 10 Mar 05, 2009 01:55 PM

good tab

0 reply
benmneb 195 Feb 21, 2016 03:29 AM

there a lot of notes (and dead notes!) you put in here that paul doesnt actually play, but this is still by far the best tab on here

guest
You may want to rate the tab now too:
select rating
Wanna post a correction for this tab? Suggest correction