Oops, an error
Loading. Please wait.

Yellow Submarine Bass Tab

version 1
version 1

Whole song

Interactive

16,929 views 18 this week
4 commentsread comments
1 2 3 4 5
worth learning
x 5
add to favorites
launch autoscroll
font size
0
reset
guitar tuner
Tab Pro tools
  • play this tab
  • loop segment
  • change instrument
  • show fretboard
  • metronome
×
Best way to learn
"Yellow Submarine"
Autoscroll
slow
fast
+/-
esc
set tempo
stop
Contributor
Yellow Submarine – The Beatles
Tab By El Gonza – gonza_forsale@hotmail.com

Verse 1:
|----------|----------------|
|----------|----------------|
|-------5--|-3--------------|
|----------|-------------3--|
In the town where I was born

|----------|-----------------|
|-2--------|-----------------|
|-------1--|---------------5-|
|----------|-3---------------|
Lived a man who sailed to sea

|-----------|----------------|
|-----------|----------------|
|-------5---|-3--------------|
|-3---------|-------------3--|
 And he told  us of his life

|-----------|-------------|
|-2---------|-------------|
|-------1---|-----------5-|
|-----------|---3---------|
 In the land of submarines

Verse 2:

|-----------|----------------|
|-----------|----------------|
|-------5---|-3--------------|
|-3---------|-------------3--|
 So we sailed up to the sun

|------------|---------------|
|-2----------|---------------|
|-------1----|-------------5-|
|------------|-3-------------|
Till we found the sea of green

|------------|----------------|
|------------|----------------|
|-------5----|-3--------------|
|-3----------|-------------3--|
And we lived  beneath the waves

|------------|----------|
|-2----------|----------|
|-------1----|--------5-|
|------------|--3-------|
In our yellow  submarine

Chorus:

|-------------------|-------------------|
|-------------------|-------------------|
|-------------------|-5---5---5---5---5-|
|-3---3---3---3---3-|-------------------|
  We all live in our  yellow  submarine

|-------------------|-------------------|
|-------------------|-------------------|
|-5---5---5---5---5-|-------------------|
|-------------------|-3---3---3---3---3-|
 Yellow   submarine,  yellow  submarine

|-------------------|-------------------|
|-------------------|-------------------|
|-------------------|-5---5---5---5---5-|
|-3---3---3---3---3-|-------------------|
  We all live in our  yellow  submarine

|-------------------|-------------------|
|-------------------|-------------------|
|-5---5---5---5---5-|-------------------|
|-------------------|-3---3---3---3---3-|
 Yellow   submarine,  yellow  submarine
 
Verse 3:

|---------------|----------------|
|---------------|----------------|
|---------5-----|-3--------------|
|-3-------------|-------------3--|
 And our friends are all on board

|-------------|------------------|
|-2-----------|------------------|
|-------1-----|----------------5-|
|-------------|-3----------------|
 Many more of  them live next door

|---------------|----------------|
|---------------|----------------|
|---------5-----|-3--------------|
|-3-------------|-------------3--|
 And the band     begins to play

(Bands Play)

Chorus:

|-------------------|-------------------|
|-------------------|-------------------|
|-------------------|-5---5---5---5---5-|
|-3---3---3---3---3-|-------------------|
  We all live in our  yellow  submarine

|-------------------|-------------------|
|-------------------|-------------------|
|-5---5---5---5---5-|-------------------|
|-------------------|-3---3---3---3---3-|
 Yellow   submarine,  yellow  submarine

|-------------------|-------------------|
|-------------------|-------------------|
|-------------------|-5---5---5---5---5-|
|-3---3---3---3---3-|-------------------|
  We all live in our  yellow  submarine

|-------------------|-------------------|
|-------------------|-------------------|
|-5---5---5---5---5-|-------------------|
|-------------------|-3---3---3---3---3-|
 Yellow   submarine,  yellow  submarine

Midle:

|-----------|----------------|
|-----------|----------------|
|-------5---|-3--------------|
|-3---------|-------------3--|

|-----------|----------------|
|-2---------|----------------|
|-------1---|-------------5--|
|-----------|-3--------------|

|-----------|----------------|
|-----------|----------------|
|-------5---|-3--------------|
|-3---------|-------------3--|
 
|-----------|----------------|
|-2---------|----------------|
|-------1---|-------------5--|
|-----------|-3--------------|

Verse 4:

|-----------|----------------|
|-----------|----------------|
|-------5---|-3--------------|
|-3---------|-------------3--|
 As we live   a life of ease

|-------------|---------------|
|-2-----------|---------------|
|--------1----|------------5--|
|-------------|-3-------------|
Everyone of us has all we need

|-----------|----------------|
|-----------|----------------|
|-------5---|-3--------------|
|-3---------|-------------3--|
 Sky of blue and sea of green

|-------------|------------|
|-2-----------|------------|
|--------1----|---------5--|
|-------------|--3---------|
 In our yellow   submarine

Chorus:

|-------------------|-------------------|
|-------------------|-------------------|
|-------------------|-5---5---5---5---5-|
|-3---3---3---3---3-|-------------------|
  We all live in our  yellow  submarine

|-------------------|-------------------|
|-------------------|-------------------|
|-5---5---5---5---5-|-------------------|
|-------------------|-3---3---3---3---3-|
 Yellow   submarine,  yellow  submarine

|-------------------|-------------------|
|-------------------|-------------------|
|-------------------|-5---5---5---5---5-|
|-3---3---3---3---3-|-------------------|
  We all live in our  yellow  submarine

|-------------------|-------------------|
|-------------------|-------------------|
|-5---5---5---5---5-|-------------------|
|-------------------|-3---3---3---3---3-|
 Yellow   submarine,  yellow  submarine


comments
print report bad tab
4 comments total. Showing first comments.
+1 reply
LeftyBassPlayer wrote on December 26 2007, 09:53 am

why did everybody ggive this a bad rating its a good tab

0 reply
sk8erdean wrote on January 23 2008, 09:37 am

sorry mate but it is off

0 reply
parkere wrote on February 10 2009, 10:36 am

this is right, but you need to tune your bass down a semitone to match the recording, and paul does something extra on the chorus. try either:
--------- -----7---- ---------- ----------
-----5--- ---7---7-- ---------- ---4--7--4
---5---5- -5-------- ---2--5--2 -5--------
-3------- and then ---------- OR -3-------- and then ---------

i played this live and this is what i did. i actually used the second chorus variation to give it a more upbeat feel, and people were clapping and singing along, so i think i played it right...

I want to post or [tab]
guest
You may want to rate the tab now too:
select rating
Please do not post tabs as comments. Select "correction" instead!