Oops, an error
Loading. Please wait.

Yellow Submarine Bass Tab

version 2
version 2

Whole song

Interactive

23,456 views 39 this week
3 commentsread comments
1 2 3 4 5
worth learning
x 13
add to favorites
launch autoscroll
font size
0
reset
guitar tuner
Tab Pro tools
  • play this tab
  • loop segment
  • change instrument
  • show fretboard
  • metronome
×
Best way to learn
"Yellow Submarine"
Autoscroll
slow
fast
+/-
esc
set tempo
stop
Contributor
-------------------------------------------------------------------------------
			    Yellow Submarine - The Beatles
-------------------------------------------------------------------------------

Tabbed By :  R8:31b
e-mail: 

Tuning: Standard 

Verse 1:
|----------|----------------|
|----------|----------------|
|-------4--|-2--------------|
|-2--------|-------------2--|
In the town where I was born

|----------|-----------------|
|-1--------|-----------------|
|-------0--|---------------4-|
|----------|-2---------------|
Lived a man who sailed to sea

|-----------|----------------|
|-----------|----------------|
|-------4---|-2--------------|
|-2---------|-------------2--|
 And he told  us of his life

|-----------|-------------|
|-1---------|-------------|
|-------0---|-----------4-|
|-----------|---2---------|
 In the land of submarines

Verse 2:

|-----------|----------------|
|-----------|----------------|
|-------4---|-2--------------|
|-2---------|-------------2--|
 So we sailed up to the sun

|------------|---------------|
|-1----------|---------------|
|-------0----|-------------4-|
|------------|-2-------------|
Till we found the sea of green

|------------|----------------|
|------------|----------------|
|-------4----|-2--------------|
|-2----------|-------------2--|
And we lived  beneath the waves

|------------|----------|
|-1----------|----------|
|-------0----|--------4-|
|------------|--2-------|
In our yellow  submarine

Chorus:

|-------------------|-------------------|
|-------------------|-------------------|
|-------------------|-4---4---4---4---4-|
|-2---2---2---2---2-|-------------------|
  We all live in our  yellow  submarine

|-------------------|-------------------|
|-------------------|-------------------|
|-4---4---4---4---4-|-------------------|
|-------------------|-2---2---2---2---2-|
 Yellow   submarine,  yellow  submarine

|-------------------|-------------------|
|-------------------|-------------------|
|-------------------|-4---4---4---4---4-|
|-2---2---2---2---2-|-------------------|
  We all live in our  yellow  submarine

|-------------------|-------------------|
|-------------------|-------------------|
|-4---4---4---4---4-|-------------------|
|-------------------|-2---2---2---2---2-
 Yellow   submarine,  yellow  submarine
 
Verse 3:

|------------|----------------|
|------------|----------------|
|-------4----|-2--------------|
|-2----------|-------------2--|
 And our friends are all on board

|------------|----------|
|-1----------|----------|
|-------0----|--------4-|
|------------|--2-------|
 Many more of  them live next door

|------------|----------------|
|------------|----------------|
|-------4----|-2--------------|
|-2----------|-------------2--|
 And the band     begins to play

(Bands Play)

Chorus:

|-------------------|-------------------|
|-------------------|-------------------|
|-------------------|-4---4---4---4---4-|
|-2---2---2---2---2-|-------------------|
  We all live in our  yellow  submarine

|-------------------|-------------------|
|-------------------|-------------------|
|-4---4---4---4---4-|-------------------|
|-------------------|-2---2---2---2---2-|
 Yellow   submarine,  yellow  submarine

|-------------------|-------------------|
|-------------------|-------------------|
|-------------------|-4---4---4---4---4-|
|-2---2---2---2---2-|-------------------|
  We all live in our  yellow  submarine

|-------------------|-------------------|
|-------------------|-------------------|
|-4---4---4---4---4-|-------------------|
|-------------------|-2---2---2---2---2-
 Yellow   submarine,  yellow  submarine

Midle:

|------------|----------------|
|------------|----------------|
|-------4----|-2--------------|
|-2----------|-------------2--|

|------------|----------|
|-1----------|----------|
|-------0----|--------4-|
|------------|--2-------|
|------------|----------------|
|------------|----------------|
|-------4----|-2--------------|
|-2----------|-------------2--|
 
|------------|----------|
|-1----------|----------|
|-------0----|--------4-|
|------------|--2-------|

Verse 4:

|-----------|----------------|
|-----------|----------------|
|-------4---|-2--------------|
|-2---------|-------------2--|
 As we live   a life of ease

|-------------|---------------|
|-1-----------|---------------|
|--------0----|------------4--|
|-------------|-2-------------|
Everyone of us has all we need

|-----------|----------------|
|-----------|----------------|
|-------4---|-2--------------|
|-2---------|-------------2--|
 Sky of blue and sea of green

|-------------|---------------|
|-1-----------|---------------|
|--------0----|------------4--|
|-------------|-2-------------|
 In our yellow   submarine

Chorus:

|-------------------|-------------------|
|-------------------|-------------------|
|-------------------|-4---4---4---4---4-|
|-2---2---2---2---2-|-------------------|
  We all live in our  yellow  submarine

|-------------------|-------------------|
|-------------------|-------------------|
|-4---4---4---4---4-|-------------------|
|-------------------|-2---2---2---2---2-|
 Yellow   submarine,  yellow  submarine

|-------------------|-------------------|
|-------------------|-------------------|
|-------------------|-4---4---4---4---4-|
|-2---2---2---2---2-|-------------------|
  We all live in our  yellow  submarine

|-------------------|-------------------|
|-------------------|-------------------|
|-4---4---4---4---4-|-------------------|
|-------------------|-2---2---2---2---2-
 Yellow   submarine,  yellow  submarine

Fade Out...
comments
print report bad tab
3 comments total.
0 reply
Jocke1995 wrote on August 2 2009, 07:14 pm

......

0 reply
R8:31b wrote on August 5 2009, 02:56 pm

...... to you mister, did you even play it with the song?

+2 reply
jammy827 wrote on July 28 2010, 08:11 am

its close but nit quite right, in the second verse part the open note on a sounds better as 4th fret on e string

I want to post or [tab]
guest
You may want to rate the tab now too:
select rating
Please do not post tabs as comments. Select "correction" instead!