Oops, an error
Loading. Please wait.

Yesterday Tab

79,510 views 39 this week
2 commentsread comments
1 2 3 4 5
accurate
x 11
add to favorites
launch autoscroll
font size
0
reset
how to read this tab
guitar tuner
Tab Pro tools
  • play this tab
  • loop segment
  • change instrument
  • show fretboard
  • metronome
×
Best way to learn
"Yesterday"
Autoscroll
slow
fast
+/-
esc
set tempo
stop
Contributor
"Yesterday"   The Beatles
written and sung by:Paul McCartney


(fingerpicked six-string acoustic guitar in standard tuning)

Intro
|-------3-------3-------3-------3--| 
|---3-3-3---3-3-3---3-3-3---3-3-3--| 
|---0-0-----0-0-----0-0-----0-0----| 
|----------------------------------| 
|----------------------------------| 
|-3-------3-------3-------3--------|

Verse
|-------3-----------2-2-----2-2-2---0-0-0---0---0---0-0-0---2-2-2-------3-------
|---3-3-3---3-3-----2-2-----0-0-0---0-0-0---0---0---0-0-0---1-1-1---3-3-3---3---
|---0-0-----0-0-----------------------------------------------------0-0-----0---
|---------------------------------2-------2---0-----------0---------------------
|-------------------------2-----------------------3-----------------------------
|-3-------3-----3-2-----2-----------------------------------------3-------3---2-

--------------------------------|
3---3-3-3---2-2-2-1--3-3--3-3-3-|
0---0-0-0---0-0-0-0--0-0--0-0-0-|
--------------------------------|
----------0-------3-------------|
--0------------------3-3--------|


Chorus
|---2-2-2---2-2-2-0--2--3--2-0---0-0-0---2-2-2-------3-----------2-2-2---2-2-2-0
|---2-2-2---0-0-0----------------1-1-1---1-1-1---3-3-3---3-3-----2-2-2---0-0-0--
|------------------------------------------------0-0-----0-0--------------------
|-----------------2--0-----------------0---------------------------------------2
|-2-------2-------------3--2---0-------------------------------2-------2--------
|----------------------------------------------3-------3-----0------------------

--2--3--2-0---0-0-0---2-2-2---|
--------------1-1-1---1-1-1-3-|
----------------------------0-|
--0-----------------0---------|
-----3--2---0-----------------| 
----------------------------0-| 


ending
|-----------------------------------|| 
|-3-3-3-3-2-2-2-2-1-----------------|| 
|-0-0-0-0-0-0-0-0-0--0-0------------|| 
|--------------------0-0------------|| 
|-5---5---4---4---3-----------------|| 
|--------------------3-3------------|| 


Playing Order:
  intro 
1 verse
2 verse
3 chorus
4 verse
5 chorus
6 verse
  ending


Lyrics:
1  Yesterday, all my troubles seemed so far away. 
   Now it look as though they're here to stay. 
   Oh, I believe in yesterday. 

2  Suddenly, I'm not half the man I used to be. 
   There's a shadow hanging over me. 
   Oh, yesterday came suddenly. 

3  Why she had to go I don't know, she wouldn't say. 
   I said something wrong, now I long for yesterday.

4  Yesterday, love was such an easy game to play. 
   Now I need a place to hide away. 
   Oh, I believe in yesterday. 

5  Why she had to go I don't know, she wouldn't say. 
   I said something wrong, now I long for yesterday. 

6  Yesterday, love was such an easy game to play. 
   Now I need a place to hide away. 
   Oh, I believe in yesterday. 

   Mm mm mm mm mm mm mm.
comments
print report bad tab
2 comments total.
0 reply
bobbobandbob wrote on February 24 2003, 12:00 am

This is great

0 reply
tygo wrote on February 24 2003, 12:00 am

Great tab, sounds perfect

I want to post or [tab]
guest
You may want to rate the tab now too:
select rating
Please do not post tabs as comments. Select "correction" instead!