Oops, an error
Loading. Please wait.
We have an official Yesterday tab made by UG professional guitarists. Check out the tab »
×

Yesterday tab

version 4
version 4

Whole song

2,416,154 views 2,124 this week
58 commentsread comments
1 2 3 4 5
x 376
add to favorites
×
Save as Personal and add changes to this tab that will be seen only by you. Learn more ›
×
You can save this tab as Personal to edit and correct it or add notes. All changes will be seen only by you. Learn more »
launch autoscroll
font size
0
reset
how to read this tab
guitar tuner
backing track
0:00
0:00
edit
Autoscroll
slow
fast
+/-
esc
set tempo
stop
[Intro]

   F       
e|---1-1-1---1-1-1---1-1-1---1-1-1--|
B|---1-1-1---1-1-1---1-1-1---1-1-1--|
G|---2-2-2---2-2-2---2-2-2---2-2-2--|
E|----------------------------------|
A|----------------------------------|
E|-1-------1-------1-------1--------|


[Verse 1]

   F                Em7          A7               Dm        Dm  Dm7  Bb
e|---1-1-1----1-1-----0-0-0----------0-0-0-------------1-1-1----1---1-----1-1-1-|
B|---1-1-1----1-1-----3-3-3----------2-2-2-------------3-3-3----3---3-----3-3-3-|
G|---2-2-2----2-2-----0-0-0----------0-0-0-------------2-2-2----2---2-----3-3-3-|
E|--------------------------------------------------0---------0-----------------|
A|---------------------------------0------------------------------3----1--------|
E|-1--------1-----1-0-----------------------------------------------------------|
   Yesterday,             all my   trouble seemedto far away                now
                
     C7                     F          F   Em   Dm        G7        Bb F
e|-----0-0-0------------------1-1-1-------1---0----1-1-1-----1-1-1---1--1-1----|
B|-----1-1-1------------------1-1-1-------1---0----3-3-3-----0-0-0---3--1-1----|
G|-----3-3-3------------------2-2-2-------2---0----2-2-2-----0-0-0---3--2-2----|
E|-----------------------------------------------0-----------------------------|
A|---3---------------------------------------------------------------1---------|
E|--------------------------1-----------1---0--------------3------------1-1----|
  it looks as though they're here to stay     oh I   believe  in   yesterday
  

[Verse 2]

   F                Em7          A7               Dm        Dm  Dm7  Bb
e|---1-1-1----1-1-----0-0-0----------0-0-0-------------1-1-1----1---1-----1-1-1-|
B|---1-1-1----1-1-----3-3-3----------2-2-2-------------3-3-3----3---3-----3-3-3-|
G|---2-2-2----2-2-----0-0-0----------0-0-0-------------2-2-2----2---2-----3-3-3-|
E|--------------------------------------------------0---------0-----------------|
A|---------------------------------0------------------------------3----1--------|
E|-1--------1-----1-0-----------------------------------------------------------|  
   Suddenly,              I´m not  half the man  I  use to be               there´s    

     C7                     F          F   Em   Dm        G7        Bb F
e|-----0-0-0------------------1-1-1-------1---0----1-1-1-----1-1-1---1--1-1----|
B|-----1-1-1------------------1-1-1-------1---0----3-3-3-----0-0-0---3--1-1----|
G|-----3-3-3------------------2-2-2-------2---0----2-2-2-----0-0-0---3--2-2----|
E|-----------------------------------------------0-----------------------------|
A|---3---------------------------------------------------------------1---------|
E|--------------------------1-----------1---0--------------3------------1-1----| 
  a  shadow    hanging      over me           oh yestarday     came suddenly
  

[Chorus]

   Em7     A7        Dm Am7 Bb         Gm6       C7         F
e|---0-0-0---0-0-0---1---0--1--1-0-------0-0-0-----0-0-0------1-1-1--1-1-1----|
B|---3-3-3---2-2-2---3---1--3--3-3-------3-3-3-----1-1-1------1-1-1--1-1-1----|
G|---0-0-0---0-0-0---2---0--3------------3-3-3-----3-3-3------2-2-2--2-2-2----|
E|-------------------0---2----------------------------------------------------|
A|---------0----------------1--------------------3----------------------------|
E|-0-----------------------------------3--------------------1-------1-------1-|
   Why     she       had to go I don´t Know she  wouldn´t say 

   Em7     A7        Dm7 Am7   Bb          Gm6      C7       F
e|---0-0-0---0-0-0---1---0-----1--1-0--------0-0-0-----0-0-0---1-1-1--1-1-1---|
B|---3-3-3---2-2-2---3---1-----3--3-3--------3-3-3-----1-1-1---1-1-1--1-1-1---|
G|---0-0-0---0-0-0---2---0-----3-------------3-3-3-----3-3-3---2-2-2--2-2-2---|
E|-------------------0---2----------------------------------------------------|
A|---------0-------------------1--------------------3-------------------------|
E|-0---------------------------------------3-----------------1-------1--------|
   I       said      something wrong now I long for yesterda a      a   ay


[Verse 3]

   F                Em7          A7               Dm        Dm  Dm7  Bb
e|---1-1-1----1-1-----0-0-0----------0-0-0-------------1-1-1----1---1-----1-1-1-|
B|---1-1-1----1-1-----3-3-3----------2-2-2-------------3-3-3----3---3-----3-3-3-|
G|---2-2-2----2-2-----0-0-0----------0-0-0-------------2-2-2----2---2-----3-3-3-|
E|--------------------------------------------------0---------0-----------------|
A|---------------------------------0------------------------------3----1--------|
E|-1--------1-----1-0-----------------------------------------------------------
   Yesterday,             love was such an easy     game to play            now

     C7                     F          F   Em   Dm        G7        Bb F
e|-----0-0-0------------------1-1-1-------1---0----1-1-1-----1-1-1---1--1-1----|
B|-----1-1-1------------------1-1-1-------1---0----3-3-3-----0-0-0---3--1-1----|
G|-----3-3-3------------------2-2-2-------2---0----2-2-2-----0-0-0---3--2-2----|
E|-----------------------------------------------0-----------------------------|
A|---3---------------------------------------------------------------1---------|
E|--------------------------1-----------1---0--------------3------------1-1----|  
  I  need a place to        hide away         oh I   believe  in   yesterday


[Chorus]

   Em7     A7        Dm Am7 Bb         Gm6       C7         F
e|---0-0-0---0-0-0---1---0--1--1-0-------0-0-0-----0-0-0------1-1-1--1-1-1----|
B|---3-3-3---2-2-2---3---1--3--3-3-------3-3-3-----1-1-1------1-1-1--1-1-1----|
G|---0-0-0---0-0-0---2---0--3------------3-3-3-----3-3-3------2-2-2--2-2-2----|
E|-------------------0---2----------------------------------------------------|
A|---------0----------------1--------------------3----------------------------|
E|-0-----------------------------------3--------------------1-------1-------1-|
   Why     she       had to go I don´t Know she  wouldn´t say 

   Em7     A7        Dm7 Am7   Bb          Gm6      C7       F
e|---0-0-0---0-0-0---1---0-----1--1-0--------0-0-0-----0-0-0---1-1-1--1-1-1---|
B|---3-3-3---2-2-2---3---1-----3--3-3--------3-3-3-----1-1-1---1-1-1--1-1-1---|
G|---0-0-0---0-0-0---2---0-----3-------------3-3-3-----3-3-3---2-2-2--2-2-2---|
E|-------------------0---2----------------------------------------------------|
A|---------0-------------------1--------------------3-------------------------|
E|-0---------------------------------------3-----------------1-------1--------|
   I       said      something wrong now I long for yesterda a       a   ay


[Verse 4]

   F                Em7          A7               Dm        Dm  Dm7  Bb
e|---1-1-1----1-1-----0-0-0----------0-0-0-------------1-1-1----1---1-----1-1-1-|
B|---1-1-1----1-1-----3-3-3----------2-2-2-------------3-3-3----3---3-----3-3-3-|
G|---2-2-2----2-2-----0-0-0----------0-0-0-------------2-2-2----2---2-----3-3-3-|
E|--------------------------------------------------0---------0-----------------|
A|---------------------------------0------------------------------3----1--------|
E|-1--------1-----1-0-----------------------------------------------------------|
   Yesterday,             love was such an easy     game to play            now

     C7                     F          F   Em   Dm        G7        Bb F
e|-----0-0-0------------------1-1-1-------1---0----1-1-1-----1-1-1---1--1-1----|
B|-----1-1-1------------------1-1-1-------1---0----3-3-3-----0-0-0---3--1-1----|
G|-----3-3-3------------------2-2-2-------2---0----2-2-2-----0-0-0---3--2-2----|
E|-----------------------------------------------0-----------------------------|
A|---3---------------------------------------------------------------1---------|
E|--------------------------1-----------1---0--------------3------------1-1----|  
  I  need a place to        hide away         oh I   believe  in   yesterday 


[Outro]

    Dm       G7       Bb F
e|----1-1-1----1-1-1--1--1-1--|
B|----3-3-3----0-0-0--3--1-1--|
G|----2-2-2-----------3--2-2--|
E|--0-------------------------|
A|--------------------1-------|
E|-----------3-----------1-1--|
    M.mm..   M.m..    M. M.m.... 




            
            
Suggest correction
Creating personal tab
Creating personal tab
You can edit any tab online and save it as your Personal.

You can edit, replace or remove any tab part or add personal notes – all changes will be seen only by you.

Personal tabs can be accessed anytime from any device, even offline.
Learn more »
comments
print report bad tab
58 comments total. Showing first comments.
+9 reply
GD555B 10 Aug 02, 2003 08:00 PM

Great Tab....perfict

+2 reply
Ornitier 81 Nov 17, 2004 07:00 PM

Excellent tab, good job mate

+1 reply
mistaman 295 Nov 24, 2005 11:04 AM

is the D string tuned up to an E or is that just a mistake?

guest
Wanna post a correction for this tab? Suggest correction