Oops, an error
Loading. Please wait.

Yesterday Tab

69,418 views 75 this week
3 commentsread comments
1 2 3 4 5
accurate
x 13
add to favorites
launch autoscroll
font size
0
reset
how to read this tab
guitar tuner
Tab Pro tools
  • play this tab
  • loop segment
  • change instrument
  • show fretboard
  • metronome
×
Best way to learn
"Yesterday"
Autoscroll
slow
fast
+/-
esc
set tempo
stop
-------------------------------------------------------------------------------
                             YESTERDAY-The Beatles
-------------------------------------------------------------------------------

Tabbed by:Rob
Email:Robertgenius@hotmail.com

This is more of an accompaniment. Anyway, hope it's good..

Tuning: Standard
INTRO

e|--------------------|
B|-------0------------|
G|-------0------------| x4
D|----0----0----------|
A|--------------------|
E|--3-----------------|
VERSE

e|-----------------------------------------------0-2-3----------------------|
B|-------0--------------------------0---2-----4-----------------------------|
G|--2-0--0----------0---------------2---------------------------------------|
D|---------0--------0-------------2-----------------------------------------|
A|----------------0---0--------------------2--------------------------------|
E|--3-----------3---------------2-------------------------------------------|

e|-2-------0---0-----------------0--0-----------------------------------------|
B|-------0-----------------------1-------3--1--0-------1-----0--0-------------|
G|-----0----------0---0-------0-------------------2--------0-----------2------|
D|-------------2----0--------------------0---------------0---------0-------1--|
A|--------------------------3-------------------------------------------------|
E|-0---------------------------------------------------3--------3------2------|

e|--------------------------------------------------------------------|
B|-----0-----------2-----------0--0--------0--------------------------| these 3
G|-0----------2----------0--------0--------0--------------------------| lines
D|---2---2-------2---2------2-----------0-----0-----------------------| are x2
A|------------0----------3--------------------------------------------|
E|-0----------------------------------3-------------------------------|
 CHORUS
 first half
e|---------------------------0-----2-----3------2-0----------------|
B|--0-----------0---------------0----0-----1-----------------------|
G|------2------------2----------0----0-----0-----------------------|
D|----2---2--------1---1-----2-----0-------------------------------|
A|--------------2------------------------3-------------------------|
E|--2--------------------------------------------------------------|
   second half a)                 second half b)
e|--2-----0--------0-------------|  -2------0--------2-----3------------------|
B|------3-----3---------0-0----0-|  ------3----3----------------3---1----0----|
G|----2----------3---3----0----0-|  ----2---------2---2------0----0---0-----0-|
D|--0---------0----------0-0--0-0|  -0---------0------------------------------|
A|-------------------------------|  ------------------------------------------|
E|----------------------3---3----|  -----------------------3------------------|
 Play the first half, then the second a, then the first half again, then the second half b.

Play the verse ONCE, then the chorus. Then, play this:
                                                 G
e|------------------------5--3--3----------------3------------------------|
B|-------0----------0-----------0---------0------3------------------------|
G|--2-0--0----------0---------------------0-------------------------------|
D|---------0------0---------------0----0-----0----------------------------|
A|-----------------------------------------------2------------------------|
E|--3----------3----------3----------3-----------3------------------------|

Well, that's it! It's very easy. (Yeah, I know, too many open strings...)
===============================================================================
comments
print report bad tab
3 comments total.
0 reply
mustang0283 wrote on October 25 2003, 12:00 am

thats real good work!sounds great!

0 reply
TravisWongPG wrote on May 11 2007, 03:25 am

http://www.youtube.com/watch?v=f_HRO65dRSA

0 reply
calliesktkate wrote on January 29 2009, 02:38 pm

amazing tab! wouldn't call it "easy" though. Not too difficult though. lol

I want to post or [tab]
guest
You may want to rate the tab now too:
select rating
Please do not post tabs as comments. Select "correction" instead!