Oops, an error
Loading. Please wait.

Yesterday Tab

19,111 views 15 this week
no commentswrite comment
1 2 3 4 5
poor
x 1
add to favorites
launch autoscroll
font size
0
reset
how to read this tab
guitar tuner
Tab Pro tools
  • play this tab
  • loop segment
  • change instrument
  • show fretboard
  • metronome
×
Best way to learn
"Yesterday"
Autoscroll
slow
fast
+/-
esc
set tempo
stop
Contributor
Difficulty
novice
Yesterday played in the key of C.

E|--------------------------------|---------------------- 7-- 8----|
B| 3-- 1-- 1---------- 1----------|-------- 5-- 7-- 9--10-- 7-- 8--|
G| 0-- 0-- 0------ 0--------------|-------- 7-- 7-- 7-- 7-- 7-- 7--|
D| 2---------- 2------------------|---- 7------ 7-- 9-- 9----------|
A| 3---------------------- 0------|---------------- 7--------------|
E|---------------------------- 6--| 7-------------------------- 6--|

E| 7---- 5---- 5------------------|------ 5-- 5---- 3--------------|
B| 5---- 5-- 5-------------- 5----|------ 1-- 1---- 3-- 6-- 5 3----|
G| 5 5------ 5---------- 5--------|-- 2-- 2-- 2-- 4---- 4-- 5-- 5--|
D|------------------ 5------------|-------------------- 3-- 3-- 3--|
A|--------------------------------|--------------------------------|
E| 5------------ 3----------------| 1------------ 3-------- 5------|

E|--------------------------------|------ 0------------------------|
B| 6---- 5---- 5------ 5-- 3------| 1---------- 3------------------|
G| 4---- 4---- 4------ 2-- 1------| 2---------- 2---------- 2------|
D| 5-- 5 5---- 5------ 3-- 2------|---- 2-------------- 2----------|
A| 3-------------- 2--------------| 0------------------------------|
E|------------------------ 0------|------------ 2------------------|

E|-------- 0-- 0------------------|--------------------------------|
B| 1------ 1-- 1---------- 1------| 3-- 1-- 1----------------------|
G| 2-------- 0 0---------- 2------| 0-- 0-- 0----------------------|
D| 3-- 3-------------- 2-- 3------| 2-- 2-- 2----------------------|
A|--------------------------------| 3---------------------- 0------|
E| 1-------- 0 0---------- 3---- 1|------------ 0-- 1-- 3------ 6--|

E|---------------------- 7-- 8----| 7------ 5-- 5------------------|
B|------ 5-- 7-- 9--10-- 7-- 8----| 5------ 5-- 5-------- 5-- 5----|
G|------ 7-- 7-- 7-- 7-- 7-- 7----| 5 5---- 5-- 5---- 5------ 3----|
D|---- 7 7-- 7-- 9-- 9------------|-------------------------- 2----|
A|-------------- 7----------------|------------------------------ 8|
E| 7---------------------- 7-- 6--| 5-------------- 3---------- 2--|

E|------ 5-- 5---- 3--------------|-------- 3----------------------|
B|-------- 5-- 5-- 5-- 6-- 5------| 6-------- 5 5---------- 3------|
G|-------- 5-- 5-- 4-- 5-- 7-- 7--| 4---------- 2---- 2---- 1------|
D|---- 7------ 4------ 3-- 5-- 5--| 5-- 5---------- 3------ 3------|
A|--------------------------------| 3---------- 2---------- 1------|
E|---------------- 3-- 5-- 6-- 7--|--------------------------------|

E|--------------------------------|--------------------------------|
B|-------- 5-- 3---------------- 1|-------- 5-- 5-------- 5------ 5|
G| 5------ 6-- 5-------------- 2--| 2-- 2-- 5-- 5---- 7---------- 7|
D| 5------ 5-- 4-------------- 2--| 2------ 6-- 5---- 5---------- 7|
A|---- 7-- 6-- 5------------------|--------------------------------|
E| 5------------------ 4-- 3-- 2--| 1------ 6-- 8------------------|

E|------------------------------ 5|------ 7------ 8-------- 7-- 5--|
B|-------------- 5-------------- 5|------ 5-------- 5------ 5-- 5--|
G|-------- 4---- 4----------------|-- 5-------- 5------ 5-- 5-- 5--|
D|-- 7---- 3 3---- 2 2------------|-------- 6------ 5------ 4------|
A|--------------------------------|--------------------------------|
E| 7------ 5------ 4------ 0------| 5------------------------------|

E| 7---------------------- 5------|--------------------------------|
B|10------10--10 8-------- 5------| 5-------- 5-- 6------ 7-- 7----|
G|---- 9------ 7-- 5------ 4-- 4--| 4---- 4-- 3-- 5------ 5-- 5----|
D|------------ 9-- 7-- 7----------|---- 5---- 5---- 3 3-- 7-- 7-- 9|
A| 8---------- 7-- 5------ 4------| 3---------- 4-- 5---- 6-- 7-- 8|
E|--------------------------------|--------------------------------|

E|--------------------------------| 5------ 7---- 8------ 7------ 7|
B| 5------ 5------ 5------ 5------| 5------ 8----10----1010--10-- 6|
G| 7------ 4-- 4-- 7------ 5------| 5-- 5-- 7---- 9---- 9 9---- 9--|
D|---- 9-- 3------ 6-- 6-- 4-- 4--|------------ 710----10------ 7--|
A|------ 5------------------------|------------------------------ 5|
E|-------------- 6-------- 4------| 5------ 7------ 8------ 9------|

E|------ 5---------------- 7---- 8|-------- 3----------------------|
B|------ 7------ 8--------10----10|-------- 3------ 6------ 5------|
G|-- 5-- 5-- 5-- 5------ 9------ 9|-------- 4------ 5------ 7------|
D|-------------- 5-- 5------------|---------------- 3------ 5------|
A|------ 6-------- 7---- 8--------| 9------------------------------|
E|--------------------------------|-------- 3------ 5------ 7------|

E|--------------------------------|---------------------- 7-- 8----|
B| 3-- 1-- 1----------------------|------ 5-- 7-- 9--10-- 7-- 8----|
G| 0-- 0-- 0----------------------|------ 7-- 7-- 7-- 7-- 7-- 7----|
D| 2-- 2-- 2----------------------|---- 7 7-- 7-- 9-- 9------------|
A| 3---------------------- 0------|-------------- 7----------------|
E|------------ 0-- 1-- 3------ 6--| 7---------------------- 7-- 6--|

E| 7------ 5-- 5------------------|------ 5-- 5---- 3--------------|
B| 5------ 5-- 5-------- 5-- 5----|-------- 5-- 5-- 5-- 6-- 5------|
G| 5 5---- 5-- 5---- 5------ 3----|-------- 5-- 5-- 4-- 5-- 7-- 7--|
D|-------------------------- 2----|---- 7------ 4------ 3-- 5-- 5--|
A|------------------------------ 8|--------------------------------|
E| 5-------------- 3---------- 2--|---------------- 3-- 5-- 6-- 7--|

E|-------- 3----------------------|--------------------------------|
B| 6-------- 5 5---------- 3------|-------- 5-- 3---------------- 1|
G| 4---------- 2---- 2---- 1------| 5------ 6-- 5-------------- 2--|
D| 5-- 5---------- 3------ 3------| 5------ 5-- 4-------------- 2--|
A| 3---------- 2---------- 1------|---- 7-- 6-- 5------------------|
E|--------------------------------| 5------------------ 4-- 3-- 2--|

E|--------------------------------|--------------------------------|
B|-------- 5-- 5-------- 5--------|-------- 5-- 3------ 3----------|
G| 2-- 2-- 5-- 5---- 7------------| 5------ 4-- 2------ 2-- 2------|
D| 2------ 6-- 5---- 5------------| 5------ 3-- 2------ 2-- 2------|
A|--------------------------------|--------------------------------|
E| 1------ 6-- 8------------------| 5------ 4-- 3---------- 2------|

E|---------- 0--------------------|--------------------------------|
B| 1-------- 1-------------- 5----|--------------------------------|
G| 2-------- 1-------------- 4----|--------------------------------|
D| 2---------------------- 2------|--------------------------------|
A|---------- 1------------ 3------|--------------------------------|
E| 1------------------------------|--------------------------------|


comments
We did not receive enough feedback on this tab! Please rate:
print report bad tab
1 2 3 4 5
I want to post or [tab]
guest
You may want to rate the tab now too:
select rating
Please do not post tabs as comments. Select "correction" instead!