Oops, an error
Loading. Please wait.

You Cant Do That Tab

version 1
version 1

Whole song

Interactive

110,115 views 249 this week
4 commentsread comments
1 2 3 4 5
x 17
add to favorites
launch autoscroll
font size
0
reset
how to read this tab
guitar tuner
backing track
0:00
0:00
×
Best way to learn
"You Cant Do That"
Autoscroll
slow
fast
+/-
esc
set tempo
stop
-------------------------------------------------------------------------------
  The Beatles - You can't do that from A Hard Day's Night album.
                Released on March the 20th of 1964.
-------------------------------------------------------------------------------
Tabbed by:PJVillanueva

Chords:     G7      353463
            C7      x32310
            D7/#9   x5456x
            D7      x5453x
            B       799877
            Em      x79987
            Am      x02210
            Bm      x24432
            D       xx0232

G7
I got something  to say that might cause you pain

If I catch you talking to that boy again
          C7                            G7
I'm gonna let you down, and leave you flat
          D7/#9               C7             G7    D7
Because I told you before,  oh you can't do that


              G7
Well it's the second time I caught you talking to him,

Do I have to tell you one more time it's a sin
             C7                              G7
I think I'll let you down, and leave you flat
          D7/#9              C7             G7
Because I told you before, oh, you can't do that


            B     Em         Am              Bm          G7
Everybody's gree--en, 'cause I'm the one who won your love,
              B     Em      Am                       Bm          D
But if they'd see---en, you talking that way, they'd laugh in my face


   G7
So please listen to me if you wanna stay mine,

I cant help my feelings I go outta my mind
          C7                             G7
I'm gonna let you down, and leave you flat
          D7/#9            C7             G7    D7
Because I told you before, oh you cant do that


[Solo]

 G7     C7      G7     D7/#9    C7     G7

     

            B     Em         Am              Bm           G7
Everybody's gree--en, 'cause I'm the one who won your love,
              B     Em      Am                       Bm          D
But if they'd see---en, you talking that way, they'd laugh in my face


         G7
So please listen to me if you wanna stay mine,

I cant help my feelings I go outta my mind
          C7                             G7
I'm gonna let you down, and leave you flat
          D7/#9                 C7         G7¨¨¨¨¨¨       
Because I told you before, oh you cant do that




[Intro]


e|-------------------------------|----------------3--------------|
B|----------------3--------------|-------------------------------|
G|3-------4-------3---4-------4--|--------4-------3---4----------|
D|5-----------5------------5-----|---5---------5-----------------|
A|-------------------------------|-------------------------------|
E|-------------------------------|-------------------------------|


[Solo]
                                     
e|-------------------------------|-------------------------------|
B|-------------------------------|-------------------------------|
G|-------------------------------|4-------4---4---5-------5------|
D|-------------------5----5---5--|5-------5---5---5-------5------|
A|-------------------------------|-------------------------------|
E|-------------------------------|-------------------------------|


e|-------------------------------|-------------------------------|
B|-------------------------------|-------------------------------|
G|6---6------5-------------------|4-------4-------5---x---5------|
D|5---5--------------5----5---5--|5-------5-------5---x---5------|
A|-------------------------------|-------------------------------|
E|-------------------------------|-------------------------------|


e|--------3----------------------|-------------------------------|
B|3---3------5B6----------5B65B6-|5B6R5---3-----------3-------5B6|
G|5B6--------5B6----------5B65B6-|5B6R5---3-------3---3-------5B6|
D|-------------------------------|----------------5--------------|
A|-------------------------------|-------------------------------|
E|-------------------------------|-------------------------------|


e|--------------------/-7 7-7-7-7|7----/--7-7-7-7-7----/--7-7-7-7|
B|--------5B6-----5---/-6-6-6-6-6|6----/--6-6-6-6-6----/--6-6-6-6|
G|--------5B6-----5---/-7-7-7-7-7|6----/--7-7-7-7-7----/--7-7-7-7|
D|-------------------------------|-------------------------------|
A|-------------------------------|-------------------------------|
E|-------------------------------|-------------------------------|


e|7-------7-7-7-7 7---7---7---7--|7-\-5-----------3--------------|
B|6-------6-6-6-6-6---6---6---6--|-------------------3-------3---|
G|7-------7-7-7-7-7---7---7---7--|7-\-5---5B6-3------5B6-----5B6-|
D|-------------------------------|-------------------------------|
A|-------------------------------|-------------------------------|
E|-------------------------------|-------------------------------|


e|-------------------------------|--------3----------3----------3|
B|--------3-------3-------3------|--------3----------3----------3|
G|------------5---3-------3---5B7|-----------5B7----------5B6----|
D|--------------------5----------|-------------------------------|
A|-------------------------------|-------------------------------|
E|-------------------------------|-------------------------------|


e|-------------------------------|
B|-------------------------------|
G|5---4--------------------------|
D|--------5¨¨¨¨¨¨----------------|
A|-------------------------------|
E|-------------------------------|


[Outro]

e|-------------------------------|-------------------------------|
B|-------------------------------|-------------------------------|
G|3-------4-------3---4-------4--|--------4----------------------|
D|5-----------5------------5-----|---5--------5---3-------4------|
A|-------------------------------|-------------------------------|
E|-------------------------------|-------------------------------|

e|-------------------------------|
B|-------------------------------|
G|-------------------------------|
D|5¨¨¨¨¨¨¨¨¨¨¨¨¨¨¨¨--------------|
A|-------------------------------|
E|-------------------------------|

************************************

| B  Bend
| R  Release 
| /  slide up
| \  slide down
| h  hammer-on
| p  pull-off
| ~  vibrato
| +  harmonic
| x  Mute note

************************************
Suggest correction
comments
print report bad tab
4 comments total. Showing first comments.
0 reply
68lpjr 10 Nov 07, 2010 06:37 AM

another great tab!, thanks PJVILL!!

0 reply
Fiery Guitar 10 Apr 27, 2011 06:07 PM

Pj, I just thought you should know that I love all your work and I really do appreciate all that you've contributed to UG. Keep it up man! ;D

0 reply
whirlpool 68 Nov 13, 2014 03:59 AM

I like your tabs, but you seem to have done a incomplete job on this great song. The solo in particular is a bit inaccurate in one or two places. Worth a second look?

guest
You may want to rate the tab now too:
select rating
Wanna post a correction for this tab? Suggest correction