Oops, an error
Loading. Please wait.
We have an official You Really Got A Hold On Me tab made by UG professional guitarists. Check out the tab »
×
7,782 views 21 this week
no commentswrite comment
1 2 3 4 5
x 4
add to favorites
×
Save as Personal and add changes to this tab that will be seen only by you. Learn more ›
×
You can save this tab as Personal to edit and correct it or add notes. All changes will be seen only by you. Learn more »
launch autoscroll
font size
0
reset
guitar tuner
edit
Autoscroll
slow
fast
+/-
esc
set tempo
stop
Author
You Really Got A Hold On Me
The Beatles
Written by Smokey Robinson; released on "With The Beatles" album

This is a "soul" song, just great! :-)

Intro:
G|------ ------ ------ ------|------ ------ ------ ------|
D|---------------------------|---------------------------|
A|---------------------------|---------------------------|
E|---------------------------|---------------------------|



G|------ ------ ------ ------|------ ------ ------ ------|
D|-------7-------------7---6-|4------4------------/4-----|
A|-----------4--7------------|--------------4---4------7-|
E|5--------------------------|---------------------------|



G|------ ------ ------ ------|------ ------ ------ ------|
D|-------7-------------7---7-|4------4------------/4-----|
A|-----------4--7------------|--------------4---4------7-|
E|5--------------------------|---------------------------|


Verse:
G|------ ------ ------ ------|------ ------ ------ ------|
D|-------7---------------4-6-|7------7-------------7---6-|
A|-----------4--7------7-----|-----------4--7------------|
E|5--------------------------|---------------------------|
  I      don't  like   you,       but I     love   you


G|------ ------ ------ ------|------ ------ ------ ------|
D|4------4-------------------/4------4-------------4-----|
A|--------------4------4---7-|--------------4----------7-|
E|---------------------------|---------------------------|
  Seems  that   al  -  ways          thinking      you
             I'm                            of

G|------ ------ ------ ------|------ ------ ------ ------|
D|-------7-------------------|-----------4--7------------|
A|-----------4--7----------4-|5------5-------------5---4-|
E|5--------------------5-7---|---------------------------|
  Oh     ho     ho, you    me badly,            I  love you
                       treat

G|------ ------ ------ ------|
D|-----------4-----------4-6-|
A|--------------7------7-----|
E|7--------------------------|
  madly,     You really got a

Refrain:
G|------ ------ ------ ------|------ ------ ------ ------|
D|7------7---------------4-6-|7------7-------------7---6-|
A|-----------4--7------7-----|-----------4--7------------|
E|---------------------------|---------------------------|
  hold   on  me                          you really got a
             you really got a hold   on  me

G|------ ------ ------ ------|------ ------ ------ ------|
D|4------4-------------------|4------4------------/4--/4-|
A|--------------4------4---7-|--------------4------------|
E|---------------------------|---------------------------|
  hold   on  me                          Ba   -    by!
             you really got a hold   on  me
Verse:
G|------ ------ ------ ------|------ ------ ------ ------|
D|-------7-------------------|7------7-------------------|
A|-----------4--7------4---7-|-----------4--7--------4-7-|
E|5--------------------------|---------------------5-----|
  I      don't  want   you,       but I     need   you


G|------ ------ ------ ------|------ ------ ------ ------|
D|4------4-------------------|4------4-------------------|
A|--------------4------4---7-|--------------4------4---7-|
E|---------------------------|---------------------------|
  Don't  wanna  kiss   you,       but I     need   to


G|------ ------ ------ ------|------ ------ ------ ------|
D|---------------------------|-----------4--7------------|
A|-----------4--7----------4-|5------5-------------5---4-|
E|5--------------------5-7---|---------------------------|
  Oh     ho     ho, you do me wrong now,        my love is


G|------ ------ ------ ------|
D|-----------4-----------4-6-|
A|--------------7------7-----|
E|7--------------------------|
  strong     You really got a
      now,
Refrain:
G|------ ------ ------ ------|------ ------ ------ ------|
D|7------7---------------4-6-|7------7-------------7---6-|
A|-----------4--7------7-----|-----------4--7------------|
E|---------------------------|---------------------------|
  hold   on  me                          you really got a
             you really got a hold   on  me

G|------ ------ ------ ------|------ ------ ------ ------|
D|4------4-------------------|4------4-------------4-----|
A|--------------4------4---7-|--------------4----------7-|
E|---------------------------|---------------------------|
  hold     on   me                       Ba   -    by!
             you really got a hold   on  me
Bridge:
G|------ ------ ------ ------|------ ------ ------ ------|
D|-------7-------------------|-----------4--7------4-----|
A|-----------4--7------4---7-|5------5-------------------|
E|5--------------------------|---------------------------|
  I      love   you,   all I  want     you  do  is just
                    and                  to

G|------ ------ ------ ------|------ ------ ------ ------|
D|7-------------7------------|7--------------------------|
A|---------------------------|--------------7------------|
E|---------------------------|---------------------------|
  hold me,      hold me,      hold me,      hold me!

3/4                    4/4
G|------ ------ ------|------ ------ ------ ------|
D|--------------------|-------7------4------------|
A|--------------------|-----------7---------7---7-|
E|--------------------|5--------------------------|



G|------ ------ ------ ------|------ ------ ------ ------|
D|4-------------7------------|-------7------4------------|
A|-------7-------------------|-----------7---------7---7-|
E|---------------------------|5--------------------------|
                       Tighter!


G|------ ------ ------ ------|
D|4-------------7------------|
A|-------7-------------------|
E|---------------------------|
                       Tighter!

Verse:
G|------ ------ ------ ------|------ ------ ------ ------|
D|-------7---------------4-6-|7------7-------------------|
A|-----------4--7------7-----|-----------4--7--------4-7-|
E|5--------------------------|---------------------5-----|
  I      wanna  leave  you,       don't     stay   here
                                     wanna

G|------ ------ ------ ------|------ ------ ------ ------|
D|4------4-------------------|4------4------------/4-----|
A|--------------4------4---7-|--------------4----------7-|
E|---------------------------|---------------------------|
  Don't  wanna  spend             ano - ther day   here


G|------ ------ ------ ------|------ ------ ------ ------|
D|-------7-------------------|-----------4--7------------|
A|-----------4--7----------4-|5------5-------------5---4-|
E|5--------------------5-7---|---------------------------|
  Oh     ho     ho, I  wanna  split now,        I  just can't


G|------ ------ ------ ------|
D|-----------4---------------|
A|--------------7------7-----|
E|7--------------------------|
  quit       You really got a
      now,
Refrain:
G|------ ------ ------ ------|------ ------ ------ ------|
D|7------7---------------4-6-|7------7-------------7---6-|
A|-----------4--7------7-----|-----------4--7------------|
E|---------------------------|---------------------------|
  hold   on  me                          you really got a
             you really got a hold   on  me

G|------ ------ ------ ------|------ ------ ------ ------|
D|4------4-------------------|4------4-------------4-----|
A|--------------4----------7-|--------------4----------7-|
E|---------------------------|---------------------------|
  hold   on  me                          Ba   -    by!
             you really got a hold   on  me ba- by!
Bridge:
G|------ ------ ------ ------|------ ------ ------ ------|
D|-------7-------------7-----|-----------4--7------4-----|
A|-----------4--7----------4-|5------5-------------------|
E|5--------------------------|---------------------------|
  I      love   you,   all I  want     you  do  is just
                    and                  to

G|------ ------ ------ ------|------ ------ ------ ------|
D|7-------------7------------|7--------------------------|
A|---------------------------|--------------7------------|
E|---------------------------|---------------------------|
  hold me,      hold me,      hold me,      hold me!
         please,       squeeze,
3/4
G|------ ------ ------|
D|--------------------|
A|--------------------|
E|--------------------|
                    You
4/4
Outro:
G|------ ------ ------ ------|------ ------ ------ ------|
D|7------7-------------------|7------7-------------7---6-|
A|-----------4--7------4---7-|-----------4--7------------|
E|---------------------------|---------------------------|
  really got a  hold   on  me                          you
                          you really got a  hold   on  me

G|------ ------ ------ ------|------ ------ ------ ------|
D|4------4-------------------|4------4---4---------4-----|
A|--------------4------4---7-|--------------4------------|
E|---------------------------|---------------------------|
  really got a  hold   on  me
                          you really got a  hold   on  me

G|------ ------ ------ ------|------ ------ ------ ------|
D|--------------7------7-----|7--------------------------|
A|----------------9-7----9-7-|---------------------------|
E|5--------------------------|---------------------------|

Please e-mail me for any corrections.

            
            
Suggest correction
Creating personal tab
Creating personal tab
You can edit any tab online and save it as your Personal.

You can edit, replace or remove any tab part or add personal notes – all changes will be seen only by you.

Personal tabs can be accessed anytime from any device, even offline.
Learn more »
comments
print report bad tab
guest
You may want to rate the tab now too:
select rating
Wanna post a correction for this tab? Suggest correction