Oops, an error
Loading. Please wait.
We have an official You Wont See Me tab made by UG professional guitarists. Check out the tab »
×
10,441 views 24 this week
no commentswrite comment
1 2 3 4 5
x 6
add to favorites
×
Save as Personal and add changes to this tab that will be seen only by you. Learn more ›
×
You can save this tab as Personal to edit and correct it or add notes. All changes will be seen only by you. Learn more »
launch autoscroll
font size
0
reset
guitar tuner
backing track
0:00
0:00
edit
Autoscroll
slow
fast
+/-
esc
set tempo
stop
Author
  ------------------------------------------------------------------

  THE BEATLES - YOU WON'T SEE ME (Lennon/McCartney) from RUBBER SOUL
                album. Released on December 3rd 1965.

  ------------------------------------------------------------------

  Bass tab by: PJVillanueva




  When I call you up 
  Your line's engaged
  I have had enough
  So act your age
  We have lost the time
  That was so hard to find
  And I will lose my mind
  If you won't see me (You won't see me)
  You won't see me (You won't see me)

  I don't know why
  You should want to hide
  But I can't get through
  My hands are tied
  I won't want to stay
  I don't have much to say
  But I can't turn away
  And you won't see me (You won't see me)
  You won't see me (You won't see me)

  Time after time
  You refuse to even listen
  I wouldn't mind
  If I knew what I was missing

  Though the days are few
  They're filled with tears
  And since I lost you
  It feels like years
  Yes, it seems so long
  Girl, since you've been gone
  And I just can't go on
  If you won't see me (You won't see me)
  You won't see me (You won't see me)

  Time after time
  You refuse to even listen
  I wouldn't mind
  If I knew what I was missing

  Though the days are few
  They're filled with tears
  And since I lost you
  It feels like years
  Yes, it seems so long
  Girl, since you've been gone
  And I just can't go on
  If you won't see me (You won't see me)
  You won't see me (You won't see me) Yeah



             
               (.
  G|------- ------- ------- -------|------- ------- ------- -------|
  D|----4---7---7------------------|--------6-------4--------------|
  A|5------------------------------|------------------------7------|
  E|-------------------------------|-------------------------------|
                                                      When I  call 
    VERSE
    00:04
  G|------- ------- ------- -------|------- ------- ------- -------|
  D|------------7------------------|------------9-------7-\-6------|
  A|----4---7---------------4---7--|----6---9-------------------9--|
  E|5-------------------5----------|7------------------------------|
                            you up                          your 
                                                                line's

  G|------- ----7-- ------- -------|------- ------- ------- -------|
  D|----4---7-----------7---4---7--|------------7------------------|
  A|5------------------------------|----4---7-----------7---4---7--|
  E|-------------------------------|5------------------------------|
                            engaged                     I   have 
                                                                had

  G|------- ------- ------- -------|------- ------- ------- -------|
  D|------------7------------------|------------9-------7-\-6------|
  A|----4---7-----------7---6---5--|----6---9-------------------9--|
  E|5------------------------------|7------------------------------|
                            enough                          so  act


  G|------- ----7-- ----6-- 4------|------- ------- ------- -------|
  D|----4---7-------------------7--|------------7-------4----------|
  A|5------------------------------|----4---7---------------7---4--|
  E|-------------------------------|5------------------------------|
                            your age                    We  have
                                                                lost
    00:20

  G|------- ------- ------- -------|------- ----7-- ----6-- 4------|
  D|------------7------------------|----4---7-------------------7--|
  A|----4---7---------------4---7--|5------------------------------|
  E|5-------------------5----------|-------------------------------|
                            the time                            that


  G|------- ------- ----5-- 4------|------- ------- ------- -------|
  D|------------7---------------7--|------------7-------4----------|
  A|5-------5----------------------|----4---7---------------7---4--|
  E|-------------------------------|5------------------------------|
    was so           hard   to  find                    and I   will


  G|------- ------- ------- -------|------- ------- ------- -------|
  D|------------7------------------|------------9-------7---6------|
  A|----4---7-----------4---7------|----6---9-------------------9--|
  E|5---------------------------5--|7------------------------------|
    lose                    my  mind                            If

    00:32

  G|------- ------- ------- -------|------- ------- ------- -------|
  D|----4---7---7------------------|7-------6-------4--------------|
  A|5------------------------------|------------------------7------|
  E|-------------------------------|-------------------------------|
    you         won't   see me   
                                   (You     won't   see     me)

  G|------- ------- ------- -------|------- ------- ------- -------|
  D|----4---7---7------------------|7-------6-------4--------------|
  A|5------------------------------|------------------------7------|
  E|-------------------------------|-------------------------------|
    you         won't   see me                          I   don't      
                                   (You     won't   see     me) know


    VERSE
    00:40
  G|------- ------- ------- -------|------- ------- ------- -------|
  D|------------7------------------|------------9-------7---6------|
  A|----4---7---------------4---7--|----6---9-------------------9--|
  E|5-------------------5----------|7------------------------------|
                            why you                         should
                                                                want

  G|------- ----7-- ------- -------|------- ------- ------- -------|
  D|----4---7-----------7---4---7--|------------7-------4----------|
  A|5------------------------------|----4---7---------------7---4--|
  E|-------------------------------|5------------------------------|
                            to  hide,                   but I   


  G|------- ------- ------- -------|------- ------- ------- -------|
  D|------------7------------------|------------9-------7----------|
  A|----4---7---------------4---7--|----6---9-------------------9--|
  E|5-------------------5----------|7------------------------------|
    can't                   get through                     my  hands


  G|------- ----7-- ------- -------|------- ------- ------- -------|
  D|----4---7-----------7---4---7--|------------7------------------|
  A|5------------------------------|----4---7---------------4---7--|
  E|-------------------------------|5-------------------5----------|
                            are tied                    I   won't
                                                                want

  G|------- ------- ------- -------|------- ----7-- ----6-- 4------|
  D|------------7------------------|----4---7-------------------7--|
  A|----4---7---------------4---7--|5------------------------------|
  E|5-------------------5----------|-------------------------------|
                            to stay                             I


  G|------- ----7-- ----6-- 4------|------- ------- ------- -------|
  D|--------7-------------------7--|------------7---------------7--|
  A|5------------------------------|----4---7-----------4---7------|
  E|-------------------------------|5------------------------------|
    don't           much    to  say                     but I   can't
        have

  G|------- ------- ------- -------|------- ------- ------- -------|
  D|------------7-------4----------|------------9-------7---6------|
  A|----4---7---------------7---4--|----6---9-------------------9--|
  E|5------------------------------|7------------------------------|
    turn                    away                                and

    01:09            
               (.
  G|------- ------- ------- -------|------- ------- ------- -------|
  D|----4---7---7------------------|7-------6-------4--------------|
  A|5------------------------------|------------------------7------|
  E|-------------------------------|-------------------------------|
    you         won't   see me   
                                   (You     won't   see     me)
               (.
  G|------- ------- ------- -------|------- ------- ------- -------|
  D|----4---7---7------------------|7-------6-------4--------------|
  A|5------------------------------|------------------------7-/----|
  E|-------------------------------|-------------------------------|
    you         won't   see me
                                   (You     won't   see     me)


    MIDDLE EIGHT
    01:17
  G|------- ------- ------- -------|------- ------- ------- -------|
  D|-------------------------------|-------------------------------|
  A|0-------2------/2-------2------|5------/5-------5---5---5------|
  E|-------------------------------|-------------------------------|
    Time            after       time                you refuse


  G|------- ------- ------- -------|------- ------- ------- -------|
  D|-------------------------------|7-------7-------7-------7--\---|
  A|5-------5-------5---5---5------|-------------------------------|
  E|-------------------------------|-------------------------------|
                 to even        listen


  G|------- ------- ------- -------|------- ------- ------- -------|
  D|-------------------------------|-------------------------------|
  A|2-------2-------2---2---2------|2-------2-------2-------2-/----|
  E|-------------------------------|-------------------------------|
    I               wouldn't    mind                If  I       knew


  G|------- ------- ------- -------|------- ------- ------- -------|
  D|-------------------------------|-------------------------------|
  A|7-------7-------7-------7------|7-------7-------7-------7------|
  E|-------------------------------|-------------------------------|
            what I          was missing                 Though  days
                                                            the
   (Knew    I       wouldn't    know        I       would)     (Ooo

    VERSE
    01:34
  G|------- ------- ------- -------|------- ------- ------- -------|
  D|----------------7--------------|------------9-------7---6------|
  A|--------4---7-----------4---7--|----6---9-------------------9--|
  E|5-------------------5----------|7------------------------------|
                            are few                         they're 
                                                                filled
    oooooooooooooooooooooooooooooooooooooooolaaaaa  la  la)     

  G|------- ----7-- ------- -------|------- ------- ------- -------|
  D|----4---7-----------7---4---7--|------------7------------------|
  A|5------------------------------|----4---7-----------7---4---7--|
  E|-------------------------------|5------------------------------|
                            with                        and since
                                tears                           I
   (Oooooooooooooooooooooooooooooooooooooooolaaaaa  la  la)


  G|------- ------- ------- -------|------- ------- ------- -------|
  D|----------------7---4----------|------------9-------7---6------|
  A|--------4---7-----------7---4--|----6---9-------------------9--|
  E|5------------------------------|7------------------------------|
                            lost                            it  feels
                                you
   (Oooooooooooooooooooooooooooooooooooooooolaaaaa  la  la)


  G|------- ----7-- ------- -------|------- ------- ------- -------|
  D|----4---7-----------7---4---7--|------------7------------------|
  A|5------------------------------|----4---7-----------7---4---7--|
  E|-------------------------------|5------------------------------|
                        like    years                   Yes,    seems
                                                            it
   (Oooooooooooooooooooooooooooooooooooooooolaaaaa  la  la)

    01:51

  G|------- ------- ------- -------|------- ----7-- ------- -------|
  D|------------7-------5---4------|----4---7-----------7---4---7--|
  A|----4---7-------------------7--|5------------------------------|
  E|5------------------------------|-------------------------------|
                            so  long                          
   (Oooooooooooooooooooooooooooooooooooooooolaaaaa  la  la)


  G|------- ----7-- ----6-- 4------|------- ------- ------- -------|
  D|--------7-------------------7--|------------7---------------4--|
  A|5---8--------------------------|----4---7-----------4---7------|
  E|-------------------------------|5------------------------------|
    girl            you've  been                        and I   just
        since                   gone
   (Oooooooooooooooooooooooooooooooooooooooolaaaaa  la  la)


  G|------- ------- ------- -------|------- ------- ------- -------|
  D|------------7-------4----------|------------9-------7---6------|
  A|----4---7---------------7---4--|----6---9-------------------9--|
  E|5------------------------------|7------------------------------|
    can't                   go  on                              If
   (Oooooooooooooooooooooooooooooooooooooooolaaaaa  la  la)

    02:03            
               (.
  G|------- ------- ------- -------|------- ------- ------- -------|
  D|----4---7---7------------------|7-------6-------4--------------|
  A|5------------------------------|------------------------7------|
  E|-------------------------------|-------------------------------|
    you         won't   see me
                                   (You     won't   see     me)
               (.
  G|------- ------- ------- -------|------- ------- ------- -------|
  D|----4---7---7------------------|7-------6-------4--------------|
  A|5------------------------------|------------------------7------|
  E|-------------------------------|-------------------------------|
    you         won't   see me
                                   (You     won't   see     me)


    MIDDLE EIGHT
    02:12
  G|------- ------- ------- -------|------- ------- ------- -------|    
  D|-------------------------------|-------------------------------|
  A|2-------2---------------2---2-/|5-------5---------------3---4--|
  E|----------------2---2----------|----------------5---5----------|
    Time            after       time                you refuse


  G|------- ------- ------- -------|------- ------- ------- -------|
  D|-------------------------------/7-------7-----4---------5---7--|
  A|5-------5-----2-0---0---3---5--|----------------7---7----------|
  E|-------------------------------|-------------------------------|
                 to even        listen


  G|------- ------- ------- -------|------- ------- ------- -------|
  D|-------------------------------|-------------------------------|
  A|2-------2-----0---------1------|2-------2-----0---------0---2--|
  E|----------------2---2----------|----------------2---2----------|
    I               wouldn't    mind                If  I       knew


  G|------- ------- ------- -------|------- ------- ------- -------|
  D|-------------------------------|-------------------------------|
  A|2-------2-----0-----2---0------|---------------/7-------7------|
  E|----------------2-----------2--|0-------0----------------------|
            what I          was missing                 Though  days
                                                            the
   (Knew    I       wouldn't    know        I       would)     (Ooo

                                                          
    VERSE
    02:28
  G|------- ------- ------- -------|------- ------- ------- -------|        
  D|7-------4----------------------|------------9-------7---6------|
  A|----------------7-------4---7--|----6---9-------------------9--|
  E|--------------------5----------|7------------------------------|
                            are few                         they're 
    oooooooooooooooooooooooooooooooooooooooolaaaaa  la  la)     filled


  G|------- ----7-- ------- -------|------- ------- ------- -------|
  D|----4---7-----------7---4---7--|------------7-------4----------|
  A|5------------------------------|----4---7---------------7---4--|
  E|-------------------------------|5------------------------------|
                            with                        and since
                                tears                           I
   (Oooooooooooooooooooooooooooooooooooooooolaaaaa  la  la)


  G|------- ------- ------- -------|------- ------- ------- -------|
  D|------------7------------------|------------9-------7---6------|
  A|----4---7---------------4---7--|----6---9-------------------9--|
  E|5-------------------5----------|7------------------------------|
                         lost                               it  feels
                                you
   (Oooooooooooooooooooooooooooooooooooooooolaaaaa  la  la)


  G|------- ----7-- ------- -------|------- ------- ------- -------|
  D|----4---7-----------7---4---7--|------------7------------------|
  A|5------------------------------|----4---7---------------4---7--|
  E|-------------------------------|5-------------------5----------|
                           like     years               Yes,    seems
                                                            it
   (Oooooooooooooooooooooooooooooooooooooooolaaaaa  la  la)


  G|------- ------- ------- -------|------- ----7-- ------- -------|
  D|------------7------------------|----4---7-----------7---4---7--|
  A|----4---7---------------4---7--|5------------------------------|
  E|5-------------------5----------|-------------------------------|
                            so  long                          
   (Oooooooooooooooooooooooooooooooooooooooolaaaaa  la  la)


  G|------- ----7-- ----6-- 4------|------- ------- ------- -------|
  D|--------7-------------------7--|------------7------------------|
  A|5---8--------------------------|----6---7-----------7---4---7--|
  E|-------------------------------|5------------------------------|
    girl            you've  been                        and I   just
        since                   gone
   (Oooooooooooooooooooooooooooooooooooooooolaaaaa  la  la)


  G|------- ------- ------- -------|------- ------- ------- -------|
  D|------------7------------------|------------9-------7---6------|
  A|----4---7---------------4---7--|----6---9-------------------9--|
  E|5-------------------5----------|7------------------------------|
    can't                   go  on                              If
   (Oooooooooooooooooooooooooooooooooooooooolaaaaa  la  la)

    02:58            
                (.
  G|------- ------- ------- -------|------- ------- ------- -------|
  D|----4---7---7------------------|7-------6-------4--------------|
  A|5------------------------------|------------------------7------|
  E|-------------------------------|-------------------------------|
    you         won't   see me
                                   (You     won't   see     me)
                (.
  G|------- ------- ------- -------|------- ------- ------- -------|
  D|----4---7---7------------------|7-------6-------4--------------|
  A|5------------------------------|------------------------7------|
  E|-------------------------------|-------------------------------|
    you         won't   see me                              Yeah!
                                   (You     won't   see     me)


    03:06
  G|------- ------- ------- -------|------- ------- ------- -------|
  D|------------7------------------|------------9-------7----------|
  A|----4---7---------------4---7--|----6---9-------------------9--|
  E|5-------------------5----------|7------------------------------|
                            Come on!                        Woowooh!
   (Oooooooooooooooooooooooooooooooooooooooolaaaaa  la  la)
    .......................... Fade out ...........................


  G|------- ----7-- ------- -------|------- ------- ------- -------|
  D|----4---7-----------7---4---7--|------------7-------4----------|
  A|5------------------------------|----4---7---------------7---4--|
  E|-------------------------------|5------------------------------|
   (Oooooooooooooooooooooooooooooooooooooooolaaaaa  la  la)
    ..............................................................






        B  Bend
        R  Release
        /  slide up
        \  slide down
        H  hammer-on
        P  pull-off
        ~  vibrato
        +  harmonic
        x  Mute note
        . - play note like a dot in standard notation
        ^ - ties two notes together
        (. Pause




            
            
Suggest correction
Creating personal tab
Creating personal tab
You can edit any tab online and save it as your Personal.

You can edit, replace or remove any tab part or add personal notes – all changes will be seen only by you.

Personal tabs can be accessed anytime from any device, even offline.
Learn more »
comments
print report bad tab
guest
You may want to rate the tab now too:
select rating
Wanna post a correction for this tab? Suggest correction