Oops, an error
Loading. Please wait.

Youre Going To Lose That Girl chords

version 3
version 3

Whole song

Interactive

13,146 views 15 this week
5 commentsread comments
1 2 3 4 5
x 7
add to favorites
×
Save as Personal and add changes to this tab that will be seen only by you. Learn more ›
×
You can save this tab as Personal to edit and correct it or add notes. All changes will be seen only by you. Learn more »
launch autoscroll
font size
0
reset
transpose
0
reset
simplify chords
display chords
guitar tuner
edit
Autoscroll
slow
fast
+/-
esc
set tempo
stop
Author
Difficulty
Strumming
There is no strumming pattern for this song yet. and get +5 IQ
“You’re Going to Lose That Girl” by The Beatles from “Help”

Chorus
               	E                                     C#m                 
You're going to lose that girl, (Yes, Yes, you're going to lose that girl,)
                F#m                                   B7                
You're going to lose that girl, (Yes, Yes, you're going to lose that girl,)

Verse 1
E			  G#				    
If you don't take her out tonight, 
 		F#m                              B7
she's going to change her mind, (she's going to change her mind,)
E			  G#	
And I will take her out tonight, 
		F#m                              B7
and I will treat her kind. (I’m gonna treat her kind.)

Chorus
Verse 2
E			  G#	
If you don't treat her right, my friend, 
		F#m                              B7
you're gonna to find her gone, (you're gonna to find her gone,)
E			  G#	
'Cos I will treat her right, 
		F#m                              B7
and then you'll be the lonely one (you're not the only one)

Chorus
Bridge
G                    C                    G
I'll make a point of taking her away from you,(watch what you do yeah) 
G                    C                 F
The way you treat her what else can I do? 
	
Solo 2x                        
E                   G#                 F#m            B7
e|---12-----12-----|12-----12---------|-----------12-|--------------|
B|12b---12b----12b-|---12b----12b-----|--------------|b14r--12--12--|
G|-----------------|------------------|11br-11--9----|--------------|
D|-----------------|------------------|--------------|--------------|
A|-----------------|------------------|--------------|--------------|
E|-----------------|------------------|--------------|--------------|

Chorus
Bridge 
Verse 1

Chorus
                E                                      C#m                 
You're going to lose that girl, (Yes, Yes, you're going to lose that girl,)
                F#m                                     B7                
You're going to lose that girl, (Yes, Yes, you're going to lose that girl,)
 	         F#m      D    A   E        
You're going to lose        that girl,

            
            
Suggest correction
Creating personal tab
Creating personal tab
You can edit any tab online and save it as your Personal.

You can edit, replace or remove any tab part or add personal notes – all changes will be seen only by you.

Personal tabs can be accessed anytime from any device, even offline.
Learn more »
comments
print report bad tab
5 comments total. Showing first comments.
0 reply
rmk811 504 Sep 08, 2013 03:29 PM

I Think the G# should be G#m.

0 reply
guylathrop 43 Jan 03, 2015 11:18 PM

I agree on the G#m... and the solo is off. but this can be fixed.

0 reply
JDHiwatt 30 Aug 27, 2015 07:45 PM

Corrected Solo 2x
E G# F#m B7
e|-----------------|------------------|-----------12-|--------------|
B|---12-----12-----|12-----12---------|--------------|b14r--12--12--|
G|12b---12b----12b-|---12b------12b---|11br-11--9----|--------------|
D|-----------------|------------------|--------------|--------------|
A|-----------------|------------------|--------------|--------------|
E|-----------------|------------------|--------------|--------------|

guest
You may want to rate the tab now too:
select rating
Wanna post a correction for this tab? Suggest correction