Oops, an error
Loading. Please wait.

La Mar The Ocean tab

version 2
version 2

Whole song

Interactive

41,552 views 12 this week
3 commentsread comments
1 2 3 4 5
x 15
add to favorites
×
Save as Personal and add changes to this tab that will be seen only by you. Learn more ›
×
You can save this tab as Personal to edit and correct it or add notes. All changes will be seen only by you. Learn more »
launch autoscroll
font size
0
reset
how to read this tab
guitar tuner
edit
Autoscroll
slow
fast
+/-
esc
set tempo
stop
Author
Band - The Beautiful Girls
Song - La Mar (The Ocean)

tuning - 1/2 step down


Main Part

Eb  |---------------------------------------|
Bb  |---------5-5-5-5-5---------------------|
Gb  |-1-1-1-1-6-6-6-6-6-5-5-5-5-5-5-5-5-5-5-|
Db  |-2-2-2-2-6-6-6-6-6-6-6-6-6-6-7-7-7-7-7-|
Ab  |-2-2-2-2-4-4-4-4-4-6-6-6-6-6-7-7-7-7-7-|
eb  |-0-0-0-0-----------4-4-4-4-4-5-5-5-5-5-| Repeat this



Solo

Eb  |----------------------------------------------------------------------|
Bb  |-------------------------------------------------------12-------------|
Gb  |------------------------------------11b12r11-9-11b12r11----11b12r11---|
Db  |--------------------9----9----9s11-9----------------------------------|
Ab  |-9---7---9--7--9s11---11---11-----------------------------------------|
eb  |----------------------------------------------------------------------|

                        
Eb  |---------------------|-------------------------------|-------------|
Bb  |-12------------------|-------12-----12-----12-----12-|-------------|
Gb  |---11b12r11-9h11-9s0-|--11h13--11h13--11h13--11h13---|-(repeat this|
Db  |---------------------|-------------------------------|---part as---|
Ab  |---------------------|-------------------------------|---needed)---|
eb  |---------------------|-------------------------------|-------------|
                               repeat.


Eb  |--------------------------------------------------------------|
Bb  |--------------------------------------------------------------|
Gb  |-s13-11-9--------------------------9h11r9-----9---------------|
Db  |-----------------9h11-11-9------------------11---11-9---------|
Ab  |---------------------------11-9-11----------------------------|
eb  |--------------------------------------------------------------|


Eb  |--------------------------------------------------------------|
Bb  |--------------------------------------------------------------|
Gb  |--------------------9h11p9------9-----------------------------|
Db  |-9h11-11-9-------------------11---11-9------------------------|
Ab  |-----------11--9--11------------------------------------------|
eb  |--------------------------------------------------------------|


Eb  |----------------------------------------------------------------------|
Bb  |----------------------------------------------------------------------|
Gb  |-----------------9h11p9----9------------------------------9-9-9-9-9s0-|
Db  |-9h11-11-9--------------11---11-9-9h11-11-11-11-9h11-11-11------------|
Ab  |----------11-9-11-----------------------------------------------------|
eb  |----------------------------------------------------------------------|

            
            
Suggest correction
Creating personal tab
Creating personal tab
You can edit any tab online and save it as your Personal.

You can edit, replace or remove any tab part or add personal notes – all changes will be seen only by you.

Personal tabs can be accessed anytime from any device, even offline.
Learn more »
comments
print report bad tab
3 comments total.
0 reply
louiebass 21 Jul 31, 2008 12:49 AM

He actually slaps the strings after 2-3 strums, not sure, you will have to listen to song. thanks

+1 reply
caro89 10 Jan 19, 2009 08:24 PM

i thought it sounded more like it starts on the 8th fret of A so
Eb |---------------------------------------------|
Bb |---------------------------------------------|
Gb |---------------------------------------------|
Db |--------------------8------8----8s10-8-------|
Ab |-8---6---8--6--8s10-----10---10--------------|
eb |----------------------6----------------------|

and also you bend it higher for the second bit

Eb |-------------------------------------------------------|
Bb |---------------------------------- 11------11------|
Gb |------------------10b11r10-8-10b12---10b12----------|
Db |--------------------------------------------------|
Ab |--------------------------------------------------|
eb |------------------------------------------------------|

actually the whole thing is pretty wrong

+1 reply
Saitenstechen 293 Oct 03, 2011 01:08 AM

Good accurate tab!
@caro89: pay attention, it's a helf step lower than normal.

guest
You may want to rate the tab now too:
select rating
Wanna post a correction for this tab? Suggest correction