Oops, an error
Loading. Please wait.

La Mar The Ocean tab

version 3
version 3

Whole song

Interactive

8,294 views 1 this week
2 commentsread comments
1 2 3 4 5
3 more votes to show rating
add to favorites
×
Save as Personal and add changes to this tab that will be seen only by you. Learn more ›
×
You can save this tab as Personal to edit and correct it or add notes. All changes will be seen only by you. Learn more »
launch autoscroll
font size
0
reset
how to read this tab
guitar tuner
edit
Autoscroll
slow
fast
+/-
esc
set tempo
stop
Difficulty
Taught to me By my Guitar Teacher, Im only 1, but i thought id post it.
Email: alleyway_drunkies@hotmail.com

Main Riff Played throughout

Eb  |-----------------------------------------------|
Bb  |---8-8-8------5-5-5----------------------------|
Gb  |---8-8-8------5-5-5-----4-4-4-----5-5-5--------|
Db  |---8-8-8------5-5-5-----5-5-5-----6-6-6--------|
Ab  |-6-------6--3-------3---5-5-5-----6-6--6-------|
eb  |----------------------3-------3-4--------4-----|


Solo

Eb  |---------------------------------------6----6----|
Bb  |-------------------------------6^-4-6^---6^------|
Gb  |-----------------0h3-0-3>5<3---------------------|
Db  |--3-1--3-1-3>5-----------------------------------|
Ab  |---------------3---------------------------------|
eb  |-------------------------------------------------|

Eb  |---------------6-----6-----6-----6----6----6---|
Bb  |--6-4------6h8---6h8---6h8---6h8---6h8--6h8----|
Gb  |------5-3--------------------------------------|
Db  |-----------------------------------------------|
Ab  |-----------------------------------------------|
eb  |-----------------------------------------------|

Eb  |-----6-----6-----6-----6-----6-----6-----------|
Bb  |-6h8---6h8---6h8---6h8---6h8---6h8---6h8-------|
Gb  |-----------------------------------------------|
Db  |-----------------------------------------------|
Ab  |-----------------------------------------------|
eb  |-----------------------------------------------|

Eb  |-----6-----6-----6-----------------------------|
Bb  |-6h8---6h8---6h8---6h8-6-----------------------|
Gb  |-------------------------8-5-------------------|
Db  |-----------------------------8h10-8----8-10----|
Ab  |------------------------------------10---------|
eb  |-----------------------------------------------|

Eb  |-----------------------------------------------|
Bb  |-----------------------------------------------|
Gb  |--8-8h10p8----8-8---------------------8-8h10p8-|
Db  |-----------10-----10--8h10-8----8-10-----------|
Ab  |-----------------------------10----------------|
eb  |-----------------------------------------------|

Eb  |-----------------------------------------------|
Bb  |-----------------------------------------------|
Gb  |-----8-8---------------------8-8h10p8----8-8---|
Db  |-10-----10--8h10-8----8-10-----------10-----10-|
Ab  |--------------------10-------------------------|
eb  |-----------------------------------------------|

Eb  |-----------------------------------------------|
Bb  |-----------------------------------------------|
Gb  |--8-8h10p8----8-8---------------------8-8h10p8-|
Db  |-----------10-----10--8h10-8----8-10-----------|
Ab  |-----------------------------10----------------|
eb  |-----------------------------------------------|

Eb  |-----------------------------------------------|
Bb  |-----------------------------------------------|
Gb  |----8-8-8>0------------------------------------|
Db  |-10--------------------------------------------|
Ab  |-----------------------------------------------|
eb  |-----------------------------------------------|

and then you go back to the beggining, sounds good with the main part played in the 
of the solo.

            
            
Suggest correction
Creating personal tab
Creating personal tab
You can edit any tab online and save it as your Personal.

You can edit, replace or remove any tab part or add personal notes – all changes will be seen only by you.

Personal tabs can be accessed anytime from any device, even offline.
Learn more »
Give kudos to tab author, rate the tab!
1 2 3 4 5
comments
print report bad tab
2 comments total.
0 reply
Flycstr 557 Feb 03, 2009 01:05 PM

The second riff cord needs to be minor: x3554x

0 reply
Flycstr 557 Feb 03, 2009 01:05 PM

Great alternative to tuning down, though!

guest
Wanna post a correction for this tab? Suggest correction