Oops, an error
Loading. Please wait.

Morning Sun bass

version 1
version 1

Whole song

12,211 views 15 this week
5 commentsread comments
1 2 3 4 5
x 4
add to favorites
×
Save as Personal and add changes to this tab that will be seen only by you. Learn more ›
×
You can save this tab as Personal to edit and correct it or add notes. All changes will be seen only by you. Learn more »
launch autoscroll
font size
0
reset
guitar tuner
edit
Autoscroll
slow
fast
+/-
esc
set tempo
stop
Author
-------------------------------------------------------------------------------
			     Morning Sun - The Beautiful Girls
-------------------------------------------------------------------------------

Tabbed By : James
e-mail:

Tuning: E A D G

G|--------------------1-------------------------------3----------------------|
D|-----------------------3--1------1h3-1--------1--3-----3--1----1h3---------|
A|----------------1-------------3---------x--3----------------3--------------|
E|----1--x--1--4------------------------------------------------------1--x---|

G|-------------1-------------------------------------------------------------|
D|----------------3--1-----1h3--1--------------------------------------------|
A|----------1-----------3----------------------------------------------------|
E|----1--4-------------------------1-1/4-4--4/6-6--1-------------------------|

Thats pretty much it for the rest of the song, Except sometimes I think they skip the 
slidy bit, I dunno figure that out yourselves
Vote and Comment

| /  slide up
| \  slide down
| h  hammer-on
| p  pull-off
| ~  vibrato
| +  harmonic
| x  Mute note
===============================================================================
Suggest correction
Creating personal tab
Creating personal tab
You can edit any tab online and save it as your Personal.

You can edit, replace or remove any tab part or add personal notes – all changes will be seen only by you.

Personal tabs can be accessed anytime from any device, even offline.
Learn more »
comments
print report bad tab
5 comments total. Showing first comments.
0 reply
bassersam 276 Oct 09, 2007 12:14 AM

the tab is alrite sounds alrite but thats not how he plays it and thats not the whole song there is a totally different chorus and pre chorus that you have left out

0 reply
bassersam 276 Oct 09, 2007 03:19 AM

and solo

0 reply
bassersam 276 Oct 11, 2007 12:13 AM

check out my tab its verse 2

guest
You may want to rate the tab now too:
select rating
Wanna post a correction for this tab? Suggest correction