Oops, an error
Loading. Please wait.

Morning Sun bass

version 2
version 2

Whole song

5,048 views 6 this week
3 commentsread comments
1 2 3 4 5
x 3
add to favorites
×
Save as Personal and add changes to this tab that will be seen only by you. Learn more ›
×
You can save this tab as Personal to edit and correct it or add notes. All changes will be seen only by you. Learn more »
launch autoscroll
font size
0
reset
guitar tuner
edit
Autoscroll
slow
fast
+/-
esc
set tempo
stop
Author
Difficulty
Artist: The Beautiful Girls
Song  : Morning Sun

Tabbed By : bassersam
e-mail: rugbystar69@msn.com

Tuning: Standard E A D G

Intro
|--------1----------------1--------------1--------------------------|
|-------1-3p1---1--------1-3p1---1------1-3p1---1-------------------|
|----1h3-----1h3-3----1h3-----1h3----1h3-----1h3--------------------|
|-1-------------------------------1--------------1-11/33/55/77\6\1--|

|-----------1----------------1--------------1----------------------|
|----------1-3p1---1--------1-3p1---1------1-3p1---1---------------|
|-------1h3-----1h3-3----1h3-----1h3----1h3-----1h3----------------|
|-32-1-------------------------------1--------------1-11/33/55/77--|

|--------1----------------1--------------1-------------1----------|
|-------1-3p1---1--------1-3p1---1------1-3p1---1-----1-3---3p1---|
|----1h3-----1h3-3----1h3-----1h3----1h3-----1h3---1h3---1h3---3--|
|-1-------------------------------1--------------1----------------|


Verse Part 1
|--------1----------------1--------------1---------------------|
|-------1-3p1---1--------1-3p1---1------1-3p1---1--------------|
|----1h3-----1h3-3----1h3-----1h3----1h3-----1h3---------------|
|-1-------------------------------1--------------1-11/33/55/77-|

|--------1----------------1--------------1-------------1----------|
|-------1-3p1---1--------1-3p1---1------1-3p1---1-----1-3---3p1---|
|----1h3-----1h3-3----1h3-----1h3----1h3-----1h3---1h3---1h3---3--|
|-1-------------------------------1--------------1----------------|

Verse Part 2 (and i want you to know.. some feelings come and go.... bit)
|----------------------------------------------------------------|
|-------------------------------1--------------------------------|
|---------------1~-----------1h3----------------1~---------------|
|-1~-----3~------------1~---------1~-----3~------------1-111123--|

Chorus (i got to keep on walkin with my head held high... bit)
|---------------------------------------------------------|
|--------------------------------------1------------------|
|-----------1-------------3--1-1-11-1h3-3-----------------|
|-1-1-11-1h3-3--3-3-33-3h5-5---------------1-1-11-1h2h3p1-|

|---------------------------------------------------------|
|--------------------------------------1------------------|
|-----------1-------------3--1-1-11-1h3-3-----------------|
|-1-1-11-1h3-3--3-3-33-3h5-5---------------1-1-11-123-----|

Back to this after chorus
|--------1----------------1--------------1----------------------|
|-------1-3p1---1--------1-3p1---1------1-3p1---1---------------|
|----1h3-----1h3-3----1h3-----1h3----1h3-----1h3----------------|
|-1-------------------------------1--------------1-11/33/55/77--|

|--------1----------------1--------------1-------------1----------|
|-------1-3p1---1--------1-3p1---1------1-3p1---1-----1-3---3p1---|
|----1h3-----1h3-3----1h3-----1h3----1h3-----1h3---1h3---1h3---3--|
|-1-------------------------------1--------------1----------------|

2nd Verse Part 1
|--------1----------------1--------------1---------------------|
|-------1-3p1---1--------1-3p1---1------1-3p1---1--------------|
|----1h3-----1h3-3----1h3-----1h3----1h3-----1h3---------------|
|-1-------------------------------1--------------1-11/33/55/77-|

|--------1----------------1--------------1-------------1----------|
|-------1-3p1---1--------1-3p1---1------1-3p1---1-----1-3---3p1---|
|----1h3-----1h3-3----1h3-----1h3----1h3-----1h3---1h3---1h3---3--|
|-1-------------------------------1--------------1----------------|

2nd Verse Part 2
|--------------------------------------------------------------|
|--------------------------------------------------------------|
|---------------1~--------------------------1~-----------------|
|-1~-----3~------------1~-----1~-----3~------------1-111123----|

2nd Chorus
|---------------------------------------------------------|
|--------------------------------------1------------------|
|-----------1-------------3--1-1-11-1h3-3-----------------|
|-1-1-11-1h3-3--3-3-33-3h5-5---------------1-1-11-1h2h3p1-|

|---------------------------------------------------------|
|--------------------------------------1------------------|
|-----------1-------------3--1-1-11-1h3-3-----------------|
|-1-1-11-1h3-3--3-3-33-3h5-5---------------11-111-111-123-|

Solo
|-------------------------------------------------------------------|
|-------------------------------------------------------------------|
|-------------------------------------------------------------------|
|-1~-----1~-----1~-----1~----55/33--1~-----1~-----1~-----11111111---|

|--------1----------------1--------------1---------------------|
|-------1-3p1---1--------1-3p1---1------1-3p1---1--------------|
|----1h3-----1h3-3----1h3-----1h3----1h3-----1h3---------------|
|-1-------------------------------1--------------1-11/33/55/77-|

|--------1----------------1--------------1-------------1----------|
|-------1-3p1---1--------1-3p1---1------1-3p1---1-----1-3---3p1---|
|----1h3-----1h3-3----1h3-----1h3----1h3-----1h3---1h3---1h3---3--|
|-1-------------------------------1--------------1----------------|

|----------------------------------------------------------------------------|
|-------------------------------------------------------------------------1--|
|------------------1h3----1------------1h3----1------------1h3----1----1h3-3-|
|-1~----1~-----1-1----1-3---11~----1-1----1-3---11~----1-1----1-3---11-------|

|-----------------------------------------------------------------------------|
|-----------------------------------------------------------------------------|
|-----1h3----1------------1h3----1------------1h3----1------------1h3----1----|
|-1-1----1-3---11~----1-1----1-3---11~----1-1----1-3---11~----1-1----1-3---11-|

Outro Verse
|---------------------------------------------------------------|
|----------------------------1----------------------------------|
|---------------1~--------1h3----------------1~-----------------|
|-1~-----3~------------1~------1~-----3~------------1-111-232---|

Outro Chorus
|-----------------------------------------------------------|
|-----3-1---1---------------------------1-------------------|
|--------1h3-3p1--------------1-1-11-1h3-3-----------1------|
|-1-1------------3-3-33-333h5--------------1-1-11-1h3-3p1---|

|--------------------------------------------|
|-----3-1---1--------------------------1-----|
|--------1h3-3p1--------------1-1-1-1h3------|
|-1-1------------3-3-33h5----------------1*--|(end on 1*)
(hit the last note short and hard)

Great fun song to play once you get it.
Please rate and comment

| /  slide up
| \  slide down
| h  hammer-on
| p  pull-off
| ~  hold note
| +  harmonic
| x  Mute note
Suggest correction
Creating personal tab
Creating personal tab
You can edit any tab online and save it as your Personal.

You can edit, replace or remove any tab part or add personal notes – all changes will be seen only by you.

Personal tabs can be accessed anytime from any device, even offline.
Learn more »
Give kudos to tab author, rate the tab!
1 2 3 4 5
comments
print report bad tab
3 comments total.
0 reply
TheBassist123 10 Oct 11, 2007 12:11 AM

Great Tab

0 reply
MASTER JiMMY 570 Oct 11, 2007 05:41 AM

hey man, yeah good stuff, like i said incase u didnt get the comment, my ear for bass isnt well trained so i cant really make out the bass parts in songs, but if i were a bassist i would trust ur knowledge, so i doubt that this tab has one mistake in it, great job man. 5 star tab

+1 reply
jdanger 31 Aug 03, 2008 12:31 PM

Your intro is wrong, youre verse 1 is wrong, a lot of notes are wrong,

guest
You may want to rate the tab now too:
select rating
Wanna post a correction for this tab? Suggest correction