Oops, an error
Loading. Please wait.

Thought About You intro tab

version 1
version 1

Intro

Whole song

2,661 views 1 this week
4 commentsread comments
1 2 3 4 5
x 10
add to favorites
×
Save as Personal and add changes to this tab that will be seen only by you. Learn more ›
×
You can save this tab as Personal to edit and correct it or add notes. All changes will be seen only by you. Learn more »
launch autoscroll
font size
0
reset
how to read this tab
guitar tuner
edit
Autoscroll
slow
fast
+/-
esc
set tempo
stop
Difficulty
E--------------------------------------------------------------------------|
B--------------------------------------------------------------------------|
G--------------------------------------------------------------------------|
D---7-7-5-5--------------5-5-------7-5-5------7---5------------------------|
A--------------------5-7---------7----------7---7---7-5-5-7----------------|
E-----------------------------------------------------------5--------------|

Just heard this song today, and there wasn't a tab so I had a crack myself. This is the 
part thats played most of the way through the song.

Pretty cool song, hope its accurate.

            
            
Suggest correction
Creating personal tab
Creating personal tab
You can edit any tab online and save it as your Personal.

You can edit, replace or remove any tab part or add personal notes – all changes will be seen only by you.

Personal tabs can be accessed anytime from any device, even offline.
Learn more »
comments
print report bad tab
4 comments total. Showing first comments.
0 reply
azn_trickz 10 Dec 25, 2007 04:20 PM

not bad man took a while for someone to post the guitar for it lol the drums are too easy

0 reply
dgrona 10 Aug 02, 2009 09:53 PM

a good effort, i can see how you've come up with that, but definitely missing some notes.

0 reply
Diamond Dave 120 Sep 23, 2009 12:13 AM

D-7755-|-------|----55-|--7-5------|
A------|-57755-|-577---|-7-7-7557--|
E------|-------|-------|---------5-|

I reckon these notes are more accurate, pretty sure he plays it all on the D and G strings as powerchords though except for that last phrase

guest
Wanna post a correction for this tab? Suggest correction