Oops, an error
Loading. Please wait.

Christmas Love Tab

181 views 1 this week
no commentswrite comment
1 2 3 4 5
please rate
add to favorites
launch autoscroll
font size
0
reset
how to read this tab
guitar tuner
Autoscroll
slow
fast
+/-
esc
set tempo
stop
Help us to improve Ultimate-Guitar.com Take our survey!
×
boo!
this song rocks! so rock and enjoy (i know its shor but thts the way it goes) this
is my band which i maid with my mates the bees knees so we are real!

e------------------------------------------------------|
b------------------------------------------------------|
g------------------16-----------------------16---------|(repeatX2)
d-------17--------------------17-----------------------|
a-------------15---------------------15----------------|
e-15----------------------15---------------------------|

e-------------------------------------------------------|
b-------------------------------------------------------|
g------------------13-----------------------13----------|
d-------14--------------------14------------------------|
a-------------12---------------------12-----------------|
e-12----------------------12----------------------------|

e------------------------------------------|
b------------------------------------------|
g-8--8-8-8------------8--8-8-8---6--6-6-6--|
d-9--9-9-9--8--8-8-8--9--9-9-9---7--7-7-7--|
a-7--7-7-7--9--9-9-9--7--7-7-7---5--5-5-5--|
e-----------7--7-7-7-----------------------|

solo*

e-----------5---------------------7-------------|
b-------5-7----7-5-----------7-9------7-9-------|
g-7(8)--------------7(8)~~-9---------------9----|
d-----------------------------------------------|
a-----------------------------------------------|
e-----------------------------------------------|

e-----------------------------------------------------|
b-------10--------10---------10-----------------------|
g-10-12-----10-12------10-12-----10-12(13)~~~~--------|
d-----------------------------------------------------|
a-----------------------------------------------------|
e-----------------------------------------------------|

e--------------------------------------|
b--------------------------------------|
g---10---10---10----10-----------------|
d-12---12---12---12---12(14)~~~~~(13)--|
a--------------------------------------|
e--------------------------------------|

thts it hope you can rock with this christmasy tune

lyrics:


christmas is comming 
the geese are getting fat

so feed the geese
or thel die of starvation

:sing the song where the ower chourds are!



lead guitar: tom haynes
drums:joe brittle
rhthm guitar and vocals:giles cook
Suggest correction
Give kudos to tab author, rate the tab!
1 2 3 4 5
comments
print report bad tab
guest
You may want to rate the tab now too:
select rating
Wanna post a correction for this tab? Suggest correction