Oops, an error
Loading. Please wait.

Legalise But Dont Tax Tab

37 views 1 this week
2 commentsread comments
1 2 3 4 5
2 more votes to show rating
add to favorites
launch autoscroll
font size
0
reset
how to read this tab
guitar tuner
Autoscroll
slow
fast
+/-
esc
set tempo
stop
Help us to improve Ultimate-Guitar.com Take our survey!
×
Author
Difficulty
intermediate
Artist: The Bennies
Song:   Legalise (But Don’t Tax)
Album:  Wisdom Machine

Tuning: Standard


[Intro] x 2

e|---------------------------------------------------|
B|---------------------------------------------------|
G|---------------------------------------------------|
D|----0-0-0-0-4-0-0-------0-0----0-0-4-4-2-2-0-0-----|
A|--------------------0-2------------------------4-4-|
E|---------------------------------------------------|

e|---------------------------------------------------|
B|---------------------------------------------------|
G|------------------------------------------0--------|
D|------------------------------------0-2-4----------|
A|----------5-------------------0-2-4----------------|
E|--3-3-3-3---3-3---3-2-3-3---3----------------------|

[verse]
D
Friday afternoon and I’m knockin off work
It’s been a tough week and my boss is the worst 
G
Call up Izzy T n' organize a q
He reminds me of an IOU

FUCK MATE

D
I thought I paid that last week
I’m good for it ya know but I need some weed quick 
G
I wanna smoke a bowl so I smoke, toke and roll 



        D
Take me higher
         G
Burn the fire
        D
Take me higher
        G 
Burn the fire

[verse]

D 
So watch TV shows on a USB
My friends roll around for some chill company
G 
There's nothing wrong here, nothing going down
Just some harmless fun and some fucking around
D 
Mirror grand prix on rainbow road
Pack another cone and blue shell toad
G 
It's 10pm we're stoned again
Cut the leaves up and throw away the stem



        D
Take me higher
         G
Burn the fire
        D
Take me higher
        G 
Burn the fire

[refrain]

e|---------------|              e|-----------------------------------|
B|---------------|              B|--------------------12^-12^-12^----|
G|---7-7-6-6-----|              G|--6----4^-4^-4^--------------------|
D|-----------7-7-| x 5          D|-----------------------------------|
A|---------------|              A|-----------------------------------|
E|---------------|              E|-----------------------------------|

D
Unity, unity you've heard it all before (hey)
Little man fighting all the big man’s wars (hey)
G
Living life like it's 20 past 4 (hey)
And never give a fuck if we break the law

D
One thing we need, one thing we need
Open up your mind and fucking legalise weed
G
One thing we need, one thing we need
Open up your skull and smoke sensi
D
One thing we need, one thing we need
Open up your mind and fucking legalise weed
G
One thing we need, one thing we need
Open up your skull and smoke


[Chorus]

D
Take me higher (one thing we need, one thing we need, open up your mind and fucking legalise weed)
G
Burn the fire (one thing we need, one thing we need, open up your mind and fucking legalise weed)
D
Take me higher (one thing we need, one thing we need, open up your mind and fucking legalise weed)
D
Burn the fire (one thing we need, one thing we need, open up your mind and fucking legalise weed)

[outro]

e|---------------------------------------------------|
B|---------------------------------------------------|
G|---------------------------------------------------|
D|----0-0-0-0-4-0-0-------0-0----0-0-4-4-2-2-0-0-----|
A|--------------------0-2------------------------4-4-|
E|---------------------------------------------------|

e|-----------------------------------------------2---|
B|-----------------------------------------------3---|
G|------------------------------------------0----2---|
D|------------------------------------0-2-4------0---|
A|----------5-------------------0-2-4----------------|
E|--3-3-3-3---3-3---3-2-3-3---3----------------------|
Suggest correction
Give kudos to tab author, rate the tab!
1 2 3 4 5
comments
print report bad tab
2 comments total.
0 reply
Chris24sguitar 109 Nov 04, 2016 03:54 AM

Good work, I think the part after refrain should be on the G and D string though, not the B and G string.

Also in the intro riff Ive played it as:

e|----------------
B|----------------
G|----------------
D|----------------
A|----------5-----
E|--3-3-3-3---3-3-

instead of the b note not sure which is right though haha

0 reply
Jessep 124 Nov 08, 2016 06:07 AM

cheers my man.....I think you're right......modified accordingly ;)

guest
You may want to rate the tab now too:
select rating
Wanna post a correction for this tab? Suggest correction