Oops, an error
Loading. Please wait.

Party Machine Tab

97 views 15 this week
no commentswrite comment
1 2 3 4 5
2 more votes to show rating
add to favorites
launch autoscroll
font size
0
reset
how to read this tab
guitar tuner
Autoscroll
slow
fast
+/-
esc
set tempo
stop
Help us to improve Ultimate-Guitar.com Take our survey!
×
Author
Difficulty
intermediate
[Intro]
e|-------------------------------      -----------------------------|
B|-------------------------------      -----------------------------|
G|------------------------------- x3   -----------------------------|  x1
D|-------------------------------      -----------------------------|
A|------5-3-------3--------------      ------5-3-------3------------|
E|-3-5------3-4-5---3-5--5-5-----      -3-5------3-4-5---3-5--5-5-5-|
       St.......            St.......      St.....
e|--------------------------------------------------|
B|--------------------------------------------------|
G|--------------------------------------------------|
D|-7~----7-7-7-7--------7~----7-7-7-7--------7-7-7--|
A|-7~----7-7-7-7--------7~----7-7-7-7--------7-7-7--|
E|-5~----5-5-5-5--------5~----5-5-5-5--------5-5-5--|

[Verse]
    v   v   v   v   v   v   v   v
e|--------------------------------|
B|--10--10--10--10--10--10--9---9-| x3
G|--9---9---9---9---9---9---8---8-|
D|--------------------------------|
A|--------------------------------|
E|--------------------------------|
    v   v   v   v   v   v    
e|-----------------------------------------|
B|--10--10--10--10--10--10-----------------| x1
G|--9---9---9---9---9---9------------------|
D|-----------------------------------------|
A|--------------------------7-7-7----7-7-7-|
E|--------------------------5-5-5----5-5-5-|
                            
[Chorus]
e|-------      ---------------|         
B|------- x6   ---------------| x1
G|-------      ---------------|            All x2
D|-------      7-7-7-7-9-9-9-9| 
A|7-7-7-7      5-5-5-5-7-7-7-7| 
E|5-5-5-5      ---------------|

[Post Chorus]
e|-------------------------------      -----------------------------|
B|-------------------------------      -----------------------------|
G|------------------------------- x3   -----------------------------|  x1
D|-------------------------------      -----------------------------|
A|------5-3-------3--------------      ------5-3-------3------------|
E|-3-5------3-4-5---3-5--5-5-----      -3-5------3-4-5---3-5--5-5-5-|
                     St...   ...
e|--------------------------------|
B|--------------------------------|
G|--------------------------------|
D|-7~--------7~--------7-7---9-9--|
A|-7~--------7~--------5-5---7-7--|
E|-5~--------5~-------------------|

[Verse 2]
 St.....    .....
e|----------------|
B|----------------| x1   Don't play this verse except for the two sets of stabs
G|----------------|      immediately before the second chorus.
D|----------------|
A|-7-7-7----7-7-7-|
E|-5-5-5----5-5-5-|

[Chorus]

e|-------      ---------------|         
B|------- x6   ---------------| x1
G|-------      ---------------|            All x2
D|-------      7-7-7-7-9-9-9-9| 
A|7-7-7-7      5-5-5-5-7-7-7-7| 
E|5-5-5-5      ---------------|

[Bridge]
e|-----------------------------------------------------------|
B|--------------------------------------------------5--------|  Rest until the stabs before
G|----5-----5-7-----5-----7-5-----5-----5-7-----5-7---7-5~---|  the last chorus, do a shoey 
D|--7---7-7-------7---7-7-------7---7-7-------7--------------|  in the meantime.
A|-----------------------------------------------------------|
E|-----------------------------------------------------------|

 St.....    .....
e|----------------|
B|----------------| x1   
G|----------------|      
D|----------------|
A|-7-7-7----7-7-7-|
E|-5-5-5----5-5-5-|

[Chorus]
e|-------      ---------------|         
B|------- x6   ---------------| x1
G|-------      ---------------|            All x2
D|-------      7-7-7-7-9-9-9-9| 
A|7-7-7-7      5-5-5-5-7-7-7-7| 
E|5-5-5-5      ---------------|

[Outro]
e|-------------------------------      -----------------------------|
B|-------------------------------      -----------------------------|
G|------------------------------- x3   -----------------------------|  x1
D|-------------------------------      -----------------------7--7--|
A|------5-3-------3--------------      ------5-3-------3------------|
E|-3-5------3-4-5---3-5--5-5-----      -3-5------3-4-5---3-5--------|

e|-----------------------------      ------------------------------|
B|-----------------------------      ------------------------------|
G|----------------------------- x3   ------------------------------|  x1
D|-----------------------------      ------------------------------|
A|----5-3-------3--------------      ------5-3-------3-------------|
E|-5------3-4-5---3-5--5-5-----      -3-5------3-4-5---4-5-0-3-4-5-|

 
************************************

| ~  Vibrato
| v   Upstroke
| St  Staccato

************************************
Suggest correction
Give kudos to tab author, rate the tab!
1 2 3 4 5
comments
print report bad tab
guest
You may want to rate the tab now too:
select rating
Wanna post a correction for this tab? Suggest correction