Oops, an error
Loading. Please wait.

Sensi-Mi Chords

55 views 1 this week
no commentswrite comment
1 2 3 4 5
3 more votes to show rating
add to favorites
launch autoscroll
font size
0
reset
transpose
0
reset
simplify chords
display chords
guitar tuner
Autoscroll
slow
fast
+/-
esc
set tempo
stop
Author
Difficulty
About this tab version
It's the first original by me. Was this info helpful? Yes No
Strumming Is this strumming pattern correct? Yes No
120 bpm
1
&
2
&
3
&
4
&
Listen
=============================================================================================
                                   Sensi-Mi - The Bennies
=============================================================================================


[Intro/Main Riff]
D
|-------------------------------------------------------------|
|------------------------------------------5brp3--------------|
|-----------2-2-4-4-4-4-2~------------2-2--------4-2h4p2------|
|-0-0-0-4-4-----------------0-0-0-4-4-------------------------|
|-------------------------------------------------------------|
|-------------------------------------------------------------|
|
|-------------------------------------------------------------|
|---------------------------5brp3-----------------------------|
|-----------2-2-4-4-4-4-2~--------4-2h4p2h4-------------------|
|-0-0-0-4-4----------------------------------2h4p2h4-2~~\0~~~~|
|-------------------------------------------------------------|
|-------------------------------------------------------------|



[Main Hook] (Trumpets) x2
D  A G
|---------5~~~~~---------5--14-12-10~~------------------------|
|-------7--------------7--------------------------------------|
|-7-7-7----------7-7-7----------------------------------------|
|-------------------------------------------------------------|
|-------------------------------------------------------------|
|-------------------------------------------------------------|



[Verse]    
                   This lick is in there at some point.
|-2--2--5--3-----|--------------------------------------------|
|-3--3--5--3-----|--------------------------------------------|
|-2--2--6--4-----|---------4-6-7------------------------------|
|----------------|----4-5-7-----------------------------------|
|-D-----A--G-----|-5-7----------------------------------------|
|----------------|--------------------------------------------|

D                    A          G
always seperated but never far apart
    D                  A            G
you fillin up my lungs fillin up my heart
   D                            A               G
im always smoking and toking ya know im keeping six
        D                            *lick*
but the pigs around the corner and i think they got a wiff.
D                           A                G
i dont care to much cause i fucking love the stuff
      D             
its a diamond in the rough
        A              G
so lets roll smoke and puff
D                  A             G
load another b and smoke up some green
   D                             A     G
we like to keep it honest only a pinch nicotine



[Chorus]
  D        A      G
whyyoooooh set me free
  D        A     G
whyyoooooh sensi mi
  D        A      G
whyyoooooh set me free
  D                   A     G
whyyoooooh we smoking sensi mi



Play Intro and Main Hook



[Verse 2]
     D
shes heading out the door
          A              G
cause she wants to score more
    D
she couldnt even wait
     A       G
till 20 past four
   D                        A             G
we vaping in the morning to keep our head light
         D 
when you wake and bake baby
    *lick*
the day just seems alright
D                     A            G
we dont wanna pay for ganjachronic weed
D                              A                   G
whoever lights my garden gonna smoke that shit for free
D                  A              G
im not the type to go and smack a bitch
  D                   A        G
unless mary jane yo i hit that shit



[Chorus]
  D        A      G
whyyoooooh set me free
  D        A     G
whyyoooooh sensi mi
  D        A      G
whyyoooooh set me free
  D                   A     G
whyyoooooh we smoking sensi mi



[Bridge]
Bm D G
Bm D Gadd13 
(Keep repeating Bm D G to the heavy part)

E5 F#5 G5
E5 F#5 G5
E5 F#5 G5
E5 F#5 G5 A5





[Chorus]
  D        A      G
whyyoooooh set me free
  D        A     G
whyyoooooh sensi mi
  D        A      G
whyyoooooh set me free
  D    -
whyyoooooh 
  D        A      G
whyyoooooh set me free
  D        A     G
whyyoooooh sensi mi
  D        A      G
whyyoooooh set me free
  D                   A     G
whyyoooooh we smoking sensi mi

While playing Intro
D   A  G
D   A  G
End on D
Suggest correction
Give kudos to tab author, rate the tab!
1 2 3 4 5
comments
print report bad tab
guest
You may want to rate the tab now too:
select rating
Wanna post a correction for this tab? Suggest correction