Oops, an error
Loading. Please wait.

Cereal Song tab

version 2
version 2

Whole song

2,312 views 1 this week
1 commentread comment
1 2 3 4 5
x 4
add to favorites
×
Save as Personal and add changes to this tab that will be seen only by you. Learn more ›
×
You can save this tab as Personal to edit and correct it or add notes. All changes will be seen only by you. Learn more »
launch autoscroll
font size
0
reset
how to read this tab
guitar tuner
edit
Autoscroll
slow
fast
+/-
esc
set tempo
stop
Author
Tabbers playing skills
intermediate ++
e|------0------------------------------0--------------------------0-----------|
b|------0------------------------------0--------------------------0-----------|
g|--------------0-0-0-0--------------------0-0-0-0--------------------0-0-0-0-|
d|--2---------s-4-4-5-4--0-2-0-2-----2---s-4-4-5-4--0-2-0-2-----2---s-4-4-5-4-|
a|--2---------s-5--------0-2-0-2-----2---s-5--------0-2-0-2-----2---s-5-------|
e|--0-0---0-0------------0-0-0-0-0-0-0--------------0-0-0-0-0-0-0-------------|

e|---------------0--0--------------------|
b|---------------0--0--------------------|
g|---------------11-----0-0-0-0----------|
d|--0-2-0-2-----------s-4-4-5-4--0-2-0-2-|
a|--0-2-0-2-----------s-5--------0-2-0-2-|
e|--0-0-0-0-0-0------------------0-0-0-0-|

em
Well...you can\'t hurt me
em
\'cause I\'m un-hurtable
em
and you can\'t scare me
em
\'cause I\'m un-shakable
em
and you can\'t touch me
em
\'cause I\'m un-reachable
em
and you can\'t get me
em
\'cause I\'m un-forgettable
am                                     em
I\'ve decided I\'m not going through it again
am                                             em
yeah I made my mind up I\'m not gunna to do it again


em
Well...I\'ve done things
em
that are unforgivable
em
I\'ve made mistakes
em
that are irreversible
em
So please don\'t give it
em
\'cause I can\'t take it
em
I\'ve made my bed now
em
I\'m gonna lay in it
      am                                    em
yeah I\'ve decided I\'m not going through it again
   am                                   em
I made my mind up I\'m not gunna do it again


/EM/  (SOLO\'S)


em
Well love and happiness
    em
are inconceivable
   em
So don\'t love me
em
\'cause I\'m unlovable
em
and don\'t tease me
em
\'cause I\'m un-temptable
em
and you can\'t be with me
em
\'cause I\'m un-be-withable
am                                      em
I\'ve decided I\'m not going through it again
    am                                    em
I made my mind up I\'m not gunna to do it again...
am                                      em
I\'ve decided I\'m not going through it again, NO
    am                                    em
I made my mind up I\'m not gunna to do it again...


/EM/ (SOLO\'S)
Right... There are two guitars here, but I only tabbed the one, and it\'s the one you 
hear best, in the left speaker. Hope it\'s ok.

e|----------------------------------------------------------------------------------|
b|----------------------------------------------------------------------------------|
g|--------------------------------------------------------------------21-21--21p18--|
d|--19^(21)--19^(21)--19^(21)-19^(21)--19-19-18-19--18-19-21-21-19-18---------------|
a|----------------------------------------------------------------------------------|
e|----------------------------------------------------------------------------------|

e|----------------------------------------------------------------------------------|
b|----------------------------------------------------------------------------------|
g|--------------------------------------------------12^--------------12-------------|
d|---21-21^-21-18--18-18-19-19^(21)--21-19-19^(21)-18-18-18-s-14--------14p12h14p12-|
a|----------------------------------------------------------------------------------|
e|----------------------------------------------------------------------------------|

e|---------------------------------------|
b|---------------------------------------|
g|-21------------------------------------|
d|----14--14-16-19----17^-s-14-----------|
a|------------------------------12-12-11-|
e|---------------------------------------|

e|----------------------------------------------------------------------------------|
b|----------------------------------------------------------------------------------|
g|----------------------------------------------------------------------------------|
d|----------------------------------------------------------------------------------|
a|-12p11-11-12p11-11-12p11-11-12p11-11-12p11-11-12p11-11-12p11-11-12p11-11-12p11-11-|
e|----------------------------------------------------------------------------------|


e|----------------------------------------------------------------------------------|
b|----------------------------------------------------------------------------------|
g|----------------------------------------------------------------------------------|
d|----------------------14------14-------------------18-18-s-14---19p18-18-21p18-18-|
a|--14^(16)-14^(16)--14^(16)-14^(16)-14-12-14p12-12---------------------------------|
e|----------------------------------------------------------------------------------|

e|----------------------------------------------------------------------------|
b|----------------------------------------------------------------------------|
g|----------------------------------------------------------------------------|
d|-19p18-18-21p18-18--19p18-18-21p18-18--19p18-18-21p18-18--19p18-18-21p18-18-|
a|----------------------------------------------------------------------------|
e|----------------------------------------------------------------------------|

e|-----------------------------------------------------------|
b|-----------------------------------------------------------|
g|-----------------------------------------------------------|
d|--19p18-18-21p18-18--19p18-18-21p18-18--19p18-18-21p18-18--|
a|-----------------------------------------------------------|
e|-----------------------------------------------------------|


e|---------------------------------------------------------------------------|
b|---------------------------------------------------------------------------|
g|---------------------------------------------------------------------------|
d|-19p18-18-21p18-18-19-18---14------------------------------------9-9-------|
a|--------------------------------11-s-7-7-s-11-11-11-7-7----s-11------------|
e|-----------------------------------------------0---------------------------|

E
Well heroin Heroin
A
And cocaine Cocaine
E
I loved them both

            
            
Suggest correction
Creating personal tab
Creating personal tab
You can edit any tab online and save it as your Personal.

You can edit, replace or remove any tab part or add personal notes – all changes will be seen only by you.

Personal tabs can be accessed anytime from any device, even offline.
Learn more »
comments
print report bad tab
1 comment total.
0 reply
Ataxia 20 Oct 18, 2008 06:37 AM

I'm a little confused. This has been labelled as the Cereal Song but it infact references the lyrics for Hurt. Then you end it with three lines from the Cereal Song!

guest
You may want to rate the tab now too:
select rating
Wanna post a correction for this tab? Suggest correction