Oops, an error
Loading. Please wait.

Cupid Tab

28 views 12 this week
no commentswrite comment
1 2 3 4 5
1 last vote to show rating
add to favorites
launch autoscroll
font size
0
reset
how to read this tab
guitar tuner
Autoscroll
slow
fast
+/-
esc
set tempo
stop
Help us to improve Ultimate-Guitar.com Take our survey!
×
Author
Difficulty
novice
About this tab version
Copied off the band's handwritten notes... Was this info helpful? Yes No
[Main riff]
e|---------------------------------------------------------------------------|
B|---0--0--0---------- 0----0----3-1-0-------0----0-----0--------------------|
G|-------------2--5----------------------0------------------2---5------------|
D|---------------------------------------------------------------------------|
A|-------------2--0-----------------------------------------2---0------------|
E|-3--3--3--------- 0----0----0----------3-----3-----3-----------------------|

e|--------------------------------------------------------------------------|
B|-----8---8----8-------------5-5-5--7-----5-5-5-5-6----7-8-7---------------|
G|------------------9-7-------4-4-4--7-----5-5-5-5-6----7-7-7---------------|
D|----------------------------5-5-5--7-----7-7-7-7-6----7-7-7---------------|
A|-------7----7----------3-----------5--------------5-----------------------|
E|--0----------------------------------5------------------------------------|
Suggest correction
Give kudos to tab author, rate the tab!
1 2 3 4 5
comments
print report bad tab
guest
You may want to rate the tab now too:
select rating
Wanna post a correction for this tab? Suggest correction