Oops, an error
Loading. Please wait.

Formidable tab

1,495 views 93 this week
no commentswrite comment
1 2 3 4 5
x 4
add to favorites
×
Save as Personal and add changes to this tab that will be seen only by you. Learn more ›
×
You can save this tab as Personal to edit and correct it or add notes. All changes will be seen only by you. Learn more »
launch autoscroll
font size
0
reset
how to read this tab
guitar tuner
edit
Autoscroll
slow
fast
+/-
esc
set tempo
stop
Author
Difficulty
[Verse 1]
Am                 D         Am
Love you've got an island to sink
D               G    C  F E
Better leave the boat capsizing
Am                 D         Am
Ruminating passionate sleep
D           G   C   F E
Better be a new sun rising

[Pre-Chorus]
F                        G#       C B D C
Did she make you swallow all your pride?
F                          G#        C B D C
Does the love still shiver down your spine?

[Chorus]
G5 D5 E5 F5 F5 C5
I am not invisible
C5 C5 B5 A5
I'm on your side
E5 F5 E5 F5 F5 C5            G5 D5 E5 F5 F5 C5   C5 C5 B5 A5
I'll be formidable, oh oh oh oh oh oh
E5 F5 E5 F5 F5 C5
I'll be formidable

[Chorus, solo guitar, distorted]
e|--------------------------------------------------|
B|--------------------------------------------------|
G|--------------------------------------------------|
D|--------------------------------------------------|
A|----3-4-5--7-8-8-3--3-3-2-0-5-6-7--8--7--8--8--3--|
E|-3~-----------------------------------------------|

e|---------------------------------------------------------------------|
B|---------------------------------------------------------------------|
G|---------------------------------------------------------------------|
D|------2-----------------------------------------------------2--------|
A|--3-5---5-3----3-4-5-7-8-8-3--3-3-2-0--5-6-7---------3--3-5---5-3----|
E|------------3~-------------------------------1-0-1-1--------------5--|

[Bridge 1]
      Am                G              G
e|-------------------------------------3---|
B|-/5-1----------/5-3---3-5-4-3--------3---|
G|------2-------------5---------4------4---|
D|--------2-----------------------5----5---|
A|----------3-1---------------------5--5---|
E|-----------------------------------------|


[Verse 2]

(Beat: D-U-D-U-D)
                            A5
You let me heal your battle scars
        C5     D5
Run my ship to ground
     A5               G5 G5   A5
Yeah nothing's gonna' take me down
                       A5
Give me everything you got
         C          E
Let your heart beat loud
     F             G#
Yeah nothing could turn me round

[Solo 1]
e|--------------------------------------|
B|-/10-8-10-8---------------------------|
G|------------9-7-------7-9-7-----------|
D|----------------10-10-------10~-------|
A|--------------------------------------|
E|--------------------------------------| [2x]

Chords: F F C C C B A G C [2x]

[Chorus]
G5 D5 E5 F5 F5 C5
I am not invisible
C5 C5 B5 A5
I'm on your side
E5 F5 E5 F5 F5 C5            G5 D5 E5 F5 F5 C5   C5 C5 B5 A5
I'll be formidable, oh oh oh oh oh oh
E5 F5 E5 F5 F5 C5
I'll be formidable

[Solo 2]
e|-------------------------------------------------------------------------------------|
B|---------8-10-/12--10-10-10/8-8-8-8---8--8-10----------------------------------------|
G|-----7-9----------------------------9---9-----9--9-9-7-------7-9-------7-9-----------|
D|-/10---------------------------------------------------10-10-----10-10-----10----10--|
A|------------------------------------------------------------------------------10-----|
E|-------------------------------------------------------------------------------------| [2x]

[End]
e|-----------------------|
B|------15-17-15---------|
G|--/17----------17-15/--|
D|-----------------------|
A|-----------------------|
E|-----------------------|

            
            
Suggest correction
Creating personal tab
Creating personal tab
You can edit any tab online and save it as your Personal.

You can edit, replace or remove any tab part or add personal notes – all changes will be seen only by you.

Personal tabs can be accessed anytime from any device, even offline.
Learn more »
comments
print report bad tab
guest
You may want to rate the tab now too:
select rating
Wanna post a correction for this tab? Suggest correction