Oops, an error
Loading. Please wait.

Dominos Bass Tab

489 views 1 this week
no commentswrite comment
1 2 3 4 5
please rate
add to favorites
launch autoscroll
font size
0
reset
guitar tuner
Autoscroll
slow
fast
+/-
esc
set tempo
stop
Help us to improve Ultimate-Guitar.com Take our survey!
×
Difficulty
novice
----------------------------------------------------------------------------
			     Dominos - The Big Pink

Tabbed By : William Kei Ho
e-mail: akaimikan@hotmail.co.jp
http://www.youtube.com/user/freakymeII

Tuning: EADG STANDARD
INTRO
G|---------------------------------------------------------------------------|
D|---------------------------------------------------------------------------|
A|--5-5-7-5-(X*8)------------------------------------------------------------|
E|---------------------------------------------------------------------------|
"..these girls fall like" (X3)
G|---------------------------------------------------------------------------|
D|---------------------------------------------------------------------------|
A|---55-7-5-55-7-5-----------------------------------------------------------|
E|------------------2~-3~----------------------------------------------------|
VERSE
G|---------------------------------------------------------------------------|
D|---------------------------------------------------------------------------|
A|-0-2-4---------9-9-7-9-7-5-------------------------------------------------|
E|---------------------------------------------------------------------------|
CHORUS
G|---------------------------------------------------------------------------|
D|---------------------------------------------------------------------------|
A|---55-7-5-55-7-5-----------------------------------------------------------|
E|------------------2~-3~----------------------------------------------------|
VERSE
G|---------------------------------------------------------------------------|
D|---------------------------------------------------------------------------|
A|-0-2-4---------9-9-7-9-7-5-------------------------------------------------|
E|---------------------------------------------------------------------------|
"..As soon as I love her.."
G|---------------------------------------------------------------------------|
D|---------------------------------------------------------------------------|
A|--5\--0x--------------------------------------0x/----5\--9-9-7-9-7-5-------|
E|---------------------------------------------------------------------------|

G|-19\-----------------------------------------------------------------------|
D|---------------------------------------------------------------------------|
A|---------------------------------------------------------------------------|
E|---------------------------------------------------------------------------|
CHORUS
G|---------------------------------------------------------------------------|
D|---------------------------------------------------------------------------|
A|---55-7-5-55-7-5-----------------------------------------------------------|
E|------------------2~-3~----------------------------------------------------|
BREAKDOWN :D
G|---------------------------------------------------------------------------|
D|---------------------------------------------------------------------------|
A|-5~-----17\----------5~-----17\--------------------------------------------|
E|---------------------------------------------------------------------------|

G|---------------------------------------------------------------------------|
D|---------------------------------------------------------------------------|
A|-5\------------------------------------------------------------------------|
E|---------------------------------------------------------------------------|
CHORUS
G|---------------------------------------------------------------------------|
D|---------------------------------------------------------------------------|
A|---55-7-5-55-7-5-----------------------------------------------------------|
E|------------------2~-3~----------------------------------------------------|

Watch my video to see the order! 
Peace ya'll!
がんばって!

| /  slide up
| \  slide down
| h  hammer-on
| p  pull-off
| ~  vibrato
| +  harmonic
| x  Mute note
===============================================================================
Suggest correction
Give kudos to tab author, rate the tab!
1 2 3 4 5
comments
print report bad tab
guest
You may want to rate the tab now too:
select rating
Please do not post tabs as comments. Select "correction" instead!