Oops, an error
Loading. Please wait.

Again And Again bass

version 2
version 2

Whole song

164 views 1 this week
no commentswrite comment
1 2 3 4 5
3 more votes to show rating
add to favorites
×
Save as Personal and add changes to this tab that will be seen only by you. Learn more ›
×
You can save this tab as Personal to edit and correct it or add notes. All changes will be seen only by you. Learn more »
launch autoscroll
font size
0
reset
guitar tuner
edit
Autoscroll
slow
fast
+/-
esc
set tempo
stop
Difficulty
-------------------------------------------------------------------------------
			  Again & Again - The Bird and the Bee
-------------------------------------------------------------------------------

 Tabbed By :sebvox
 e-mail:sebvox@gmail.com

This tab is the correct version based on video evidence of how Inara George
("the bird") actually plays it.  The first half of the verse is played with
a fuzz effect. It can also be acheived with bass overdrive.

 Verse (0.23)
G|--------------------------------------------------------------------------------|
D|88-888-888-6-9-888-888-888-6-9-444-444-444--------------------------------------|
A|------------------------------------------------------3-------2-------1-------0-|
E|--------------------------------------------------------------------------------|
 (effect on)                                         (effect off)

 Chorus (0.43)
G|--------------------------------------------------------------------------------|
D|--------------------777-----777---------------------777-----777-----------------|
A|----666-444-------------------------666-444-------------------------------------|
E|444---------444-555-----555-----444---------444-555-----555-----333-333-333-333-|


 Verse (1.06)
G|--------------------------------------------------------------------------------|
D|88-888-888-6-9-888-888-888-6-9-444-444-444--------------------------------------|
A|------------------------------------------------------3-------2-------1-------0-|
E|--------------------------------------------------------------------------------|
 (effect on)                                         (effect off)

 Chorus (1.26)
G|--------------------------------------------------------------------------------|
D|--------------------777-----777---------------------777-----777-----------------|
A|----666-444-------------------------666-444-------------------------------------|
E|444---------444-555-----555-----444---------444-555-----555-----333-333-333-333-|

 Bridge(Pause)

 Chorus (2.07)
G|----------------------------------------------------------------|
D|--------------------777-----777---------------------777-----777-|
A|----666-444-------------------------666-444---------------------|
E|444---------444-555-----555-----444---------444-555-----555-----|


G|--------------------------------------------------------------------------------|
D|--------------------777-----777---------------------777-----777-----------------|
A|----666-444-------------------------666-444-------------------------------------|
E|444---------444-555-----555-----444---------444-555-----555-----333-333-333-----|
                                                                 (effect on)   
The last notes end out with the fuzz effect.


            
            
Suggest correction
Creating personal tab
Creating personal tab
You can edit any tab online and save it as your Personal.

You can edit, replace or remove any tab part or add personal notes – all changes will be seen only by you.

Personal tabs can be accessed anytime from any device, even offline.
Learn more »
Give kudos to tab author, rate the tab!
1 2 3 4 5
comments
print report bad tab
guest
Wanna post a correction for this tab? Suggest correction