Oops, an error
Loading. Please wait.

Blue Bass Tab

version 1
version 1

Whole song

Interactive

1,866 views 1 this week
no commentswrite comment
1 2 3 4 5
2 more votes to show rating
add to favorites
launch autoscroll
font size
0
reset
guitar tuner
Autoscroll
slow
fast
+/-
esc
set tempo
stop
Help us to improve Ultimate-Guitar.com Take our survey!
×
Author
Difficulty
Tuning
novice
D A D G B E
-------------------------------------------------------------------------------
			     Blue - The Birthday Massacre
-------------------------------------------------------------------------------

Tabbed By : Necrotic
e-mail: joelschwallier@gmail.com

Tuning: Drop D

Intro
G|----------------------------------------------------------------------|
D|----------------------------------------------------------------------|
A|----------------------------------------------------------------------|
D|00-00000-000--606-00-00000-000--606-33-33333-333-636-33-33333-333-636-|

G|----------------------------------------------------------------------|
D|----------------------------------------------------------------------|
A|----------------------------------------------------------------------|
D|00-00000-000--606-00-00000-000--606-33-33333-333-636-33-33333-333-----|

Verse
G|-----------------------------|
D|-----------------------------|
A|---3-------------------------|
D|3-----5------5---8---3--5----|x4

Chorus
G|----------------------------------------------------------------------|
D|----------------------------------------------------------------------|
A|----------------------------------------------------------------------|
D|00-00000-000--606-00-00000-000--606-33-33333-333-636-33-33333-333-636-|

G|----------------------------------------------------------------------|
D|----------------------------------------------------------------------|
A|----------------------------------------------------------------------|
D|00-00000-000--606-00-00000-000--606-33-33333-333-636-33-33333-333-----|

Verse
G|-----------------------------|
D|-----------------------------|
A|---3-------------------------|
D|3-----5------5---8---3--5----|x4

Chorus
G|----------------------------------------------------------------------|
D|----------------------------------------------------------------------|
A|----------------------------------------------------------------------|
D|00-00000-000--606-00-00000-000--606-33-33333-333-636-33-33333-333-636-|x2

Rest 8 measures

Bridge
G|----------------------------------------|
D|----------------------------------------|
A|----------33-3-----------11-1-----------|
D|00-0-33--------55-5-00--------55-5-33---|x2

Chorus
G|----------------------------------------------------------------------|
D|----------------------------------------------------------------------|
A|----------------------------------------------------------------------|
D|00-00000-000--606-00-00000-000--606-33-33333-333-636-33-33333-333-636-|x4

| /  slide up
| \  slide down
| h  hammer-on
| p  pull-off
| ~  vibrato
| +  harmonic
| x  Mute note
===============================================================================
Suggest correction
Give kudos to tab author, rate the tab!
1 2 3 4 5
comments
print report bad tab
guest
You may want to rate the tab now too:
select rating
Wanna post a correction for this tab? Suggest correction