Oops, an error
Loading. Please wait.

Control Tab

807 views 3 this week
no commentswrite comment
1 2 3 4 5
please rate
add to favorites
launch autoscroll
font size
0
reset
how to read this tab
guitar tuner
Autoscroll
slow
fast
+/-
esc
set tempo
stop
Help us to improve Ultimate-Guitar.com Take our survey!
×
Author
Difficulty
Tuning
novice
D A D G B E
-------------------------------------------------------------------------------
                             CONTROL - The Birthday Massacre
-------------------------------------------------------------------------------
Tabbed by: Kiera
Email: evanescenceguitarist@yahoo.com

Tuning: Drop D


Intro Riff               Chorus Riff 1 >>>
e|----------------------|-----------------------------------------------------|
B|----------------------|-----------------------------------------------------|
G|----------------------|-----------------------------------------------------|
D|----------------------|-----------------------------------------------------|
A|-0-0--0--0----0---0-0-|----0-0--0--0----0-0--0-0-----3-3--3--3----10-10-----|
D|-0-0--0--0----0---0-0-|----0-0--0--0----0-0--0-0-----3-3--3--3----10-10-----|

------------------------------------------------------------------|
------------------------------------------------------------------|
------------------------------------------------------------------|
------------------------------------------------------------------|
-10-10-10----8-8--8--8----8-8--8-8-----3-3--3--3----7-7--7-7-7----|
-10-10-10----8-8--8--8----8-8--8-8-----3-3--3--3----7-7--7-7-7----|

Riff 2
e|---------------------------------------------------------------------------|
B|---------------------------------------------------------------------------|
G|---------------------------------------------------------------------------|
D|---------------------------------------------------------------------------|
A|-0-0-0-0-0-0-0-0-0-0-0-0-0-0-0-0--3-3-3-3-3-3-3-3-10-10-10-10-10-10-10-10--|
D|-0-0-0-0-0-0-0-0-0-0-0-0-0-0-0-0--3-3-3-3-3-3-3-3-10-10-10-10-10-10-10-10--|

------------------------------------------------------------------|
------------------------------------------------------------------|
------------------------------------------------------------------|
------------------------------------------------------------------|
-5-5-5-5-5-5-5-5-5-5-5-5-5-5-5-5--8-8-8-8-8-8-8-8-3-3-3-3-3-3-3-3-|
-5-5-5-5-5-5-5-5-5-5-5-5-5-5-5-5--8-8-8-8-8-8-8-8-3-3-3-3-3-3-3-3-|


Verse
Guitar 1 x2 (only PM on 1st repeat)
e|---------------------------------------------------------------------------|
B|---------------------------------------------------------------------------|
G|---------------------------------------------------------------------------|
D|---------------------------------------------------------------------------|
A|-0-0--0---0-0--0---5-5--5---8-8--8---0-0--0---0-0--0---8-8--8----3-3--3----|
D|-0-0--0---0-0--0---5-5--5---8-8--8---0-0--0---0-0--0---8-8--8----3-3--3----|
PM ___  _   ___  _   ___  _   ___  _   ___  _   ___  _   ___  _    ___  _


Guitar 2 (come in after 1st repeat of Guitar 1)
e|---------------------------------------------------------------------------|
B|---------------------------------------------------------------------------|
G|---------------------------------------------------------------------------|
D|---------------------------------------------------------------------------|
A|-0-0-0-0-0-0-0-0-0-0-0-0-0-0-0-0--5-5-5-5-5-5-5-5-8-8-8-8-8-8-8-8----------|
D|-0-0-0-0-0-0-0-0-0-0-0-0-0-0-0-0--5-5-5-5-5-5-5-5-8-8-8-8-8-8-8-8----------|

---------------------------------------------------------------------------|
---------------------------------------------------------------------------|
---------------------------------------------------------------------------|
---------------------------------------------------------------------------|
-0-0-0-0-0-0-0-0-0-0-0-0-0-0-0-0--8-8-8-8-8-8-8-8-3-3-3-3--3---------------|
-0-0-0-0-0-0-0-0-0-0-0-0-0-0-0-0--8-8-8-8-8-8-8-8-3-3-3-3--3---------------|



Chorus Riff 1 & 2 >>>

Verse

Chorus (slightly different riff)
e|---------------------------------------------------------------------------|
B|---------------------------------------------------------------------------|
G|---------------------------------------------------------------------------|
D|---------------------------------------------------------------------------|
A|-0-0-0-0-0-0-0-0-0-0-0-0-0-0-0-0--3-3-3-3-3-3-3-3-10-10-10-10-10-10-10-10--|
D|-0-0-0-0-0-0-0-0-0-0-0-0-0-0-0-0--3-3-3-3-3-3-3-3-10-10-10-10-10-10-10-10--|

------------------------------------------------------------------|
------------------------------------------------------------------|
------------------------------------------------------------------|
------------------------------------------------------------------|
-8-8-8-8-8-8-8-8-8-8-8-8-8-8-8-8--3-3-3-3-3-3-3-3-7-7-7-7-7-7-7-7-|
-8-8-8-8-8-8-8-8-8-8-8-8-8-8-8-8--3-3-3-3-3-3-3-3-7-7-7-7-7-7-7-7-|

Chorus Riff 2

Intro Riff


Bridge
  Guitar 1
e|---------------------------------------------------------------------------|
B|---------------------------------------------------------------------------|
G|---------------------------------------------------------------------------|
D|---------------------------------------------------------------------------|
A|-5-5-5-5-5-5-5-5-7-7-7-7-7-7-7-7-3-3-3-3-3-3-3-3-3-10-10-10-10-10-10-10-10-|
D|-5-5-5-5-5-5-5-5-7-7-7-7-7-7-7-7-3-3-3-3-3-3-3-3-3-10-10-10-10-10-10-10-10-|
 |
 |Guitar 2
e|---------------------------------------------------------------------------|
B|---------------------------------------------------------------------------|
G|---------------------------------------------------------------------------|
D|-7-------5-----------------------5---------3--------2----------------------|
A|-----------------8-------7-------------------------------------3-----------|
D|---------------------------------------------------------------------------|


  Guitar 1
e|---------------------------------------------------------------------------|
B|---------------------------------------------------------------------------|
G|---------------------------------------------------------------------------|
D|---------------------------------------------------------------------------|
A|-5-5-5-5-5-5-5-5-0-0-0-0-0-0-0-0-8-8-8-8-8-8-8-8-8-3-3-3-3-3-3-3-3---------|
D|-5-5-5-5-5-5-5-5-0-0-0-0-0-0-0-0-8-8-8-8-8-8-8-8-8-3-3-3-3-3-3-3-3---------|
 |
 |Guitar 2
e|---------------------------------------------------------------------------|
B|---------------------------------------------------------------------------|
G|---------------------------------------------------5-5-5-5-5-5-5-5---------|
D|-----------------5-5-5-5-5-5-5-5-3-3-3-3-3-3-3-3-3-------------------------|
A|-5-5-5-5-5-5-5-5-----------------------------------------------------------|
D|---------------------------------------------------------------------------|


  Guitar 1
e|---------------------------------------------------------------------------|
B|---------------------------------------------------------------------------|
G|---------------------------------------------------------------------------|
D|---------------------------------------------------------------------------|
A|-5-5-5-5-5-5-5-5-7-7-7-7-7-7-7-7-3-3-3-3-3-3-3-3-3-10-10-10-10-10-10-10-10-|
D|-5-5-5-5-5-5-5-5-7-7-7-7-7-7-7-7-3-3-3-3-3-3-3-3-3-10-10-10-10-10-10-10-10-|
 |
 |Guitar 2
e|---------------------------------------------------------------------------|
B|---------------------------------------------------------------------------|
G|---------------------------------------------------------------------------|
D|-7-------5-----------------------5---------3--------2----------3-----------|
A|-----------------8-------7-------------------------------------------------|
D|---------------------------------------------------------------------------|


  Guitar 1
e|---------------------------------------------------------------------------|
B|---------------------------------------------------------------------------|
G|---------------------------------------------------------------------------|
D|---------------------------------------------------------------------------|
A|-5-5-5-5-5-5-5-5-0-0-0-0-0-0-0-0-8-8-8-8-8-8-8-8-8-3-3-3-3-3-3-3-3---------|
D|-5-5-5-5-5-5-5-5-0-0-0-0-0-0-0-0-8-8-8-8-8-8-8-8-8-3-3-3-3-3-3-3-3---------|
 |
 |Guitar 2
e|---------------------------------------------------------------------------|
B|---------------------------------------------------------------------------|
G|---------------------------------------------------------------------------|
D|-----------------5-5-5-5-5-5-5-5-3-3-3-3-3-3-3-3-3-------------------------|
A|-5-5-5-5-5-5-5-5-----------------------------------3-3-3-3-3-3-3-3---------|
D|---------------------------------------------------------------------------|



e|---------------------------------------------------------------------------|
B|---------------------------------------------------------------------------|
G|---------------------------------------------------------------------------|
D|---------------------------------------------------------------------------|
A|-0-0-------------10-10-------------8-8-------10-10-------5-5-------8-8-----|
D|-0-0-------------10-10-------------8-8-------10-10-------5-5-------8-8-----|


e|---------------------------------------------------------------------------|
B|---------------------------------------------------------------------------|
G|---------------------------------------------------------------------------|
D|---------------------------------------------------------------------------|
A|-0---------------10----------------8---------10----------5---------8-------|
D|-0---------------10----------------8---------10----------5---------8-------|


Chorus Riff 1 & 2 >>>

Intro Riff


END



Thanks for looking :)
More TBM to come

************************************

| /   slide up
| \   slide down
| h   hammer-on
| p   pull-off
| ~   vibrato
| +   harmonic
| x   Mute note
| b   Bend
| pb  Pre-bend
| br  Bend release
| pbr Pre-bend release
| brb Bend release bend

************************************
Suggest correction
Give kudos to tab author, rate the tab!
1 2 3 4 5
comments
print report bad tab
guest
You may want to rate the tab now too:
select rating
Please do not post tabs as comments. Select "correction" instead!