Oops, an error
Loading. Please wait.

Cover My Eyes Tab

218 views 1 this week
no commentswrite comment
1 2 3 4 5
1 last vote to show rating
add to favorites
launch autoscroll
font size
0
reset
how to read this tab
guitar tuner
Autoscroll
slow
fast
+/-
esc
set tempo
stop
Help us to improve Ultimate-Guitar.com Take our survey!
×
Author
Difficulty
Tuning
novice
D A D G B E
-------------------------------------------------------------------------------
                             COVER MY EYES - The Birthday Massacre
-------------------------------------------------------------------------------
Tabbed by: Kiera
E-mail: evanescenceguitarist@yahoo.com

Tuning:Drop D

This tab has some parts that aren't actually played on guitar but I wrote
the notes you could play to follow the bass/keys/vocals.

Riff 1 x3
e|--------------------------------------------------------------------------|
B|--------------------------------------------------------------------------|
G|--------------------------------------------------------------------------|
D|--------------------------------------------------------------------------|
A|--------------------------------------------------------------------------|
D|---5-----------8-----0------5--------------8-------3----------------------|


Pre-Chorus
e|--------------------------------------------------------------------------|
B|--------------------------------------------------------------------------|
G|--------------------------------------------------------------------------|
D|--------------------------------------------------------------------------|
A|--------------------------------------------------------------------------|
D|-1------------5-------------3------------5--------3-----------------------|


Riff 1 x4


Pre-Chorus (actual guitar now)
e|--------------------------------------------------------------------------|
B|--------------------------------------------------------------------------|
G|--------------------------------------------------------------------------|
D|--------------------------------------------------------------------------|
A|-1-1-1-1-1-1-1-1-1-1-1-1-1-1-1-1-1--5-5-5-5-5-5-5-5-5-5-5-5-5-5-5-5-------|
D|-1-1-1-1-1-1-1-1-1-1-1-1-1-1-1-1-1--5-5-5-5-5-5-5-5-5-5-5-5-5-5-5-5-------|
PM____________________________________________________________________


e|--------------------------------------------------------------------------|
B|--------------------------------------------------------------------------|
G|--------------------------------------------------------------------------|
D|--------------------------------------------------------------------------|
A|-3-3-3-3-3-3-3-3-3-3-3-3-3-3-3-3--5-5-5-5-5-5-5-5-3-3-3-3-3-3-3-3---------|
D|-3-3-3-3-3-3-3-3-3-3-3-3-3-3-3-3--5-5-5-5-5-5-5-5-3-3-3-3-3-3-3-3---------|
PM__________________________________________________________________



Pre-Bridge/Chorus
e|--------------------------------------------------------------------------|
B|--------------------------------------------------------------------------|
G|--------------------------------------------------------------------------|
D|--------------------------------------------------------------------------|
A|-5-5-5-5-5-5-5-5-5-5-5-5-5-5-5-5--8-8-8-8-8-8-8-8-0-0-0-0-0-0-0-0---------|
D|-5-5-5-5-5-5-5-5-5-5-5-5-5-5-5-5--8-8-8-8-8-8-8-8-0-0-0-0-0-0-0-0---------|
 |
e|--------------------------------------------------------------------------|
B|-/15----------------------------------------------------------------------|
G|-------------12-------------------15--------17----------------------------|
D|----------------------------------------------------------15--------------|
A|--------------------------------------------------------------------------|
D|--------------------------------------------------------------------------|


e|--------------------------------------------------------------------------|
B|--------------------------------------------------------------------------|
G|--------------------------------------------------------------------------|
D|--------------------------------------------------------------------------|
A|-5-5-5-5-5-5-5-5-5-5-5-5-5-5-5-5--8-8-8-8-8-8-8-8-3-3-3-3-3-3-3-3---------|
D|-5-5-5-5-5-5-5-5-5-5-5-5-5-5-5-5--8-8-8-8-8-8-8-8-3-3-3-3-3-3-3-3---------|
 |
e|--------------------------------------------------------------------------|
B|-/15----------------------------------------------------------------------|
G|-------------12-------------------15--------17----------------------------|
D|----------------------------------------------------------15--------------|
A|--------------------------------------------------------------------------|
D|--------------------------------------------------------------------------|


e|--------------------------------------------------------------------------|
B|--------------------------------------------------------------------------|
G|--------------------------------------------------------------------------|
D|--------------------------------------------------------------------------|
A|-5-5-5-5-5-5-5-5-5-5-5-5-5-5-5-5--8-8-8-8-8-8-8-8-0-0-0-0-0-0-0-0---------|
D|-5-5-5-5-5-5-5-5-5-5-5-5-5-5-5-5--8-8-8-8-8-8-8-8-0-0-0-0-0-0-0-0---------|
 |
e|--------------------------------------------------------------------------|
B|-/15------------------------------18--------------------------------------|
G|-------------12-----------------------------17----------------------------|
D|----------------------------------------------------------15--------------|
A|--------------------------------------------------------------------------|
D|--------------------------------------------------------------------------|


e|--------------------------------------------------------------------------|
B|--------------------------------------------------------------------------|
G|--------------------------------------------------------------------------|
D|--------------------------------------------------------------------------|
A|-5-5-5-5-5-5-5-5-5-5-5-5-5-5-5-5--8-8-8-8-8-8-8-8-3-3-3-3-3-3-3-3---------|
D|-5-5-5-5-5-5-5-5-5-5-5-5-5-5-5-5--8-8-8-8-8-8-8-8-3-3-3-3-3-3-3-3---------|
 |
e|--------------------------------------------------------------------------|
B|-/15----------------------------------------------------------------------|
G|-------------12-------------------15--------14----------------------------|
D|----------------------------------------------------------15--------------|
A|--------------------------------------------------------------------------|
D|--------------------------------------------------------------------------|


Bridge
e|--------------------------------------------------------------------------|
B|--------------------------------------------------------------------------|
G|--------------------------------------------------------------------------|
D|--------------------------------------------------------------------------|
A|-10-(x16)-1-(x16--5-(x16)-8-(x16)-10-(x16)-1-(x16)-5-(x16)-3-(x8)-1-(x8)--|
D|-10-------1-------5-------8-------10-------1-------5-------3------1-------|
 |
e|--------------------------------------------------------------------------|
B|--------------------------------------------------------------------------|
G|--------------------------------------------------------------------------|
D|-17~----------------------------------------------------------------------|
A|--------------------------------------------------------------------------|
D|--------------------------------------------------------------------------|


Outro
e|--------------------------------------------------------------------------|
B|--------------------------------------------------------------------------|
G|--------------------------------------------------------------------------|
D|--------------------------------------------------------------------------|
A|-5------------------------------------------------------------------------|
D|-5------------8------0------5--------------8-----0-------5----------------|


END

thanks for looking!
I'm currently working on getting all the tabs up for this album :)

************************************

| /   slide up
| \   slide down
| h   hammer-on
| p   pull-off
| ~   vibrato
| +   harmonic
| x   Mute note
| b   Bend
| pb  Pre-bend
| br  Bend release
| pbr Pre-bend release
| brb Bend release bend

************************************
Suggest correction
Give kudos to tab author, rate the tab!
1 2 3 4 5
comments
print report bad tab
guest
You may want to rate the tab now too:
select rating
Wanna post a correction for this tab? Suggest correction