Oops, an error
Loading. Please wait.

Falling Down Bass Tab

version 1
version 1

Whole song

Interactive

1,031 views 1 this week
1 commentread comment
1 2 3 4 5
accurate
x 3
add to favorites
launch autoscroll
font size
0
reset
guitar tuner
Autoscroll
slow
fast
+/-
esc
set tempo
stop
Help us to improve Ultimate-Guitar.com Take our survey!
×
Author
Difficulty
Tuning
novice
D A D G B E
-------------------------------------------------------------------------------
			     Falling Down - The Birthday Massacre
-------------------------------------------------------------------------------

Tabbed By : Necrotic
e-mail: joelschwallier@gmail.com

Tuning: Drop D

Intro
G|------------------------------------------------------------|
D|------------------------------------------------------------|
A|3-3-3----------3-3-3----------0-0-0----------0-0-0----------|
D|------------------------------------------------------------|

G|----------------------------------------------------------------|
D|----------------------------------------------------------------|
A|3-3-3-3-3-3-3-3-3-3-3-3-3-3-3-3-3-3-3-3-3-3-3-3-3-3-3-3-3-3-3-3-|
D|----------------------------------------------------------------|

G|----------------------------------------------------------------|
D|----------------------------------------------------------------|
A|0-0-0-0-0-0-0-0-0-0-0-0-0-0-0-0-0-0-0-0-0-0-0-0-0-0-0-0-0-0-0-0-|
D|----------------------------------------------------------------|

G|------------------------------------------------------------|
D|------------------------------------------------------------|
A|3-3-3----------3-3-3----------0-0-0----------0-0-0----------|
D|------------------------------------------------------------|

Pre-Verse
G|----------------------------------------------------------------|
D|----------------------------------------------------------------|
A|----------------------------------------------------------------|
D|10--10--10--10--10--10--10--10--10--10--10--10--10--10--10--10--|

G|----------------------------------------------------------------|
D|----------------------------------------------------------------|
A|----------------------------------------------------------------|
D|7-7-7-7-7-7-7-7-7-7-7-7-7-7-7-7-7-7-7-7-7-7-7-7-7-7-7-7-7-7-7-7-|

Verse
G|----------------------------------------------------------------|
D|--------------------------------------------------------2-0-----|
A|3-3-3-3-3-3-3-3-3-3-3-3-3-3-3-3-3-3-3-3-3-3-3-3-3-3-3-3-----3-2-|
D|----------------------------------------------------------------|

G|----------------------------------------------------------------|
D|----------------------------------------------------------------|
A|0-0-0-0-0-0-0-0-0-0-0-0-0-0-0-0-0-0-0-0-0-0-0-0-0-0-0-0-0-0-0-0-|
D|----------------------------------------------------------------|

G|----------------------------------------------------------------|
D|--------------------------------------------------------2-0-----|
A|3-3-3-3-3-3-3-3-3-3-3-3-3-3-3-3-3-3-3-3-3-3-3-3-3-3-3-3-----3-2-|
D|----------------------------------------------------------------|

G|----------------------------------------------------------------|
D|----------------------------------------------------------------|
A|0-0-0-0-0-0-0-0-0-0-0-0-0-0-0-0-0-0-0-0-0-0-0-0-0-0-0-0-0-0-0-0-|
D|----------------------------------------------------------------|

Pre-Chorus
G|----------------------------------------------------------------|
D|----------------------------------------------------------------|
A|----------------------------------------------------------------|
D|10--10--10--10--10--10--10--10--10--10--10--10--10--10--10--10--|

G|----------------------------------------------------------------|
D|----------------------------------------------------------------|
A|----------------------------------------------------------------|
D|7-7-7-7-7-7-7-7-7-7-7-7-7-7-7-7-7-7-7-7-7-7-7-7-7-7-7-7-7-7-7-7-|

Chorus
G|----------------------------------------------------------------|
D|----------------------------------------------------------------|
A|0-0-0-0-0-0-0-0-2-2-2-2-2-2-2-2-----------------5-5-5-5-5-5-5-5-|
D|--------------------------------4-4-4-4-4-4-4-4-----------------|

G|----------------------------------------------------------------|
D|----------------------------------------------------------------|
A|0-0-0-0-0-0-0-0-2-2-2-2-2-2-2-2---------------------------------|
D|--------------------------------4-4-4-4-4-4-4-4-4-4-4-4-4-4-4-4-|

G|----------------------------------------------------------------|
D|----------------------------------------------------------------|
A|0-0-0-0-0-0-0-0-2-2-2-2-2-2-2-2-----------------5-5-5-5-5-5-5-5-|
D|--------------------------------4-4-4-4-4-4-4-4-----------------|

G|----------------------------------------------------------------|
D|----------------------------------------------------------------|
A|0-0-0-0-0-0-0-0-2-2-2-2-2-2-2-2---------------------------------|
D|--------------------------------4-4-4-4-4-4-4-4-4-4-4-4-4-4-4-4-|

Verse
G|----------------------------------------------------------------|
D|--------------------------------------------------------2-0-----|
A|3-3-3-3-3-3-3-3-3-3-3-3-3-3-3-3-3-3-3-3-3-3-3-3-3-3-3-3-----3-2-|
D|----------------------------------------------------------------|

G|----------------------------------------------------------------|
D|----------------------------------------------------------------|
A|0-0-0-0-0-0-0-0-0-0-0-0-0-0-0-0-0-0-0-0-0-0-0-0-0-0-0-0-0-0-0-0-|
D|----------------------------------------------------------------|

G|----------------------------------------------------------------|
D|--------------------------------------------------------2-0-----|
A|3-3-3-3-3-3-3-3-3-3-3-3-3-3-3-3-3-3-3-3-3-3-3-3-3-3-3-3-----3-2-|
D|----------------------------------------------------------------|

G|----------------------------------------------------------------|
D|----------------------------------------------------------------|
A|0-0-0-0-0-0-0-0-0-0-0-0-0-0-0-0-0-0-0-0-0-0-0-0-0-0-0-0-0-0-0-0-|
D|----------------------------------------------------------------|

Pre-Chorus
G|----------------------------------------------------------------|
D|----------------------------------------------------------------|
A|----------------------------------------------------------------|
D|10--10--10--10--10--10--10--10--10--10--10--10--10--10--10--10--|

G|----------------------------------------------------------------|
D|----------------------------------------------------------------|
A|----------------------------------------------------------------|
D|7-7-7-7-7-7-7-7-7-7-7-7-7-7-7-7-7-7-7-7-7-7-7-7-7-7-7-7-7-7-7-7-|

Chorus
G|----------------------------------------------------------------|
D|----------------------------------------------------------------|
A|0-0-0-0-0-0-0-0-2-2-2-2-2-2-2-2-----------------5-5-5-5-5-5-5-5-|
D|--------------------------------4-4-4-4-4-4-4-4-----------------|

G|----------------------------------------------------------------|
D|----------------------------------------------------------------|
A|0-0-0-0-0-0-0-0-2-2-2-2-2-2-2-2---------------------------------|
D|--------------------------------4-4-4-4-4-4-4-4-4-4-4-4-4-4-4-4-|

G|----------------------------------------------------------------|
D|----------------------------------------------------------------|
A|0-0-0-0-0-0-0-0-2-2-2-2-2-2-2-2-----------------5-5-5-5-5-5-5-5-|
D|--------------------------------4-4-4-4-4-4-4-4-----------------|

G|----------------------------------------------------------------|
D|----------------------------------------------------------------|
A|0-0-0-0-0-0-0-0-2-2-2-2-2-2-2-2---------------------------------|
D|--------------------------------4-4-4-4-4-4-4-4-4-4-4-4-4-4-4-4-|

Rest 8 measures

Bridge
G|----------------------------------------------------------------|
D|----------------------------------------------------------------|
A|0-0-0-0-0-0-0-0-0-0-0-0-0-0-0-0-0-0-0-0-0-0-0-0-0-0-0-0-0-0-0-0-|
D|----------------------------------------------------------------|

G|----------------------------------------------------------------|
D|----------------------------------------------------------------|
A|3-3-3-3-3-3-3-3-3-3-3-3-3-3-3-3-3-3-3-3-3-3-3-------------------|
D|----------------------------------------------------------------|

Verse
G|----------------------------------------------------------------|
D|--------------------------------------------------------2-0-----|
A|3-3-3-3-3-3-3-3-3-3-3-3-3-3-3-3-3-3-3-3-3-3-3-3-3-3-3-3-----3-2-|
D|----------------------------------------------------------------|

G|----------------------------------------------------------------|
D|----------------------------------------------------------------|
A|0-0-0-0-0-0-0-0-0-0-0-0-0-0-0-0-0-0-0-0-0-0-0-0-0-0-0-0-0-0-0-0-|
D|----------------------------------------------------------------|

Chorus
G|----------------------------------------------------------------|
D|----------------------------------------------------------------|
A|0-0-0-0-0-0-0-0-2-2-2-2-2-2-2-2-----------------5-5-5-5-5-5-5-5-|
D|--------------------------------4-4-4-4-4-4-4-4-----------------|

G|----------------------------------------------------------------|
D|----------------------------------------------------------------|
A|0-0-0-0-0-0-0-0-2-2-2-2-2-2-2-2---------------------------------|
D|--------------------------------4-4-4-4-4-4-4-4-4-4-4-4-4-4-4-4-|

G|----------------------------------------------------------------|
D|----------------------------------------------------------------|
A|0-0-0-0-0-0-0-0-2-2-2-2-2-2-2-2-----------------5-5-5-5-5-5-5-5-|
D|--------------------------------4-4-4-4-4-4-4-4-----------------|

G|----------------------------------------------------------------|
D|----------------------------------------------------------------|
A|0-0-0-0-0-0-0-0-2-2-2-2-2-2-2-2---------------------------------|
D|--------------------------------4-4-4-4-4-4-4-4-4-4-4-4-4-4-4-4-|


| /  slide up
| \  slide down
| h  hammer-on
| p  pull-off
| ~  vibrato
| +  harmonic
| x  Mute note
===============================================================================
Suggest correction
Give kudos to tab author, rate the tab!
1 2 3 4 5
comments
print report bad tab
1 comment total.
0 reply
Necrotic 1,216 wrote on October 17 2008, 11:27 am

Chorus
G|----------------------------------------------------------------|
D|----------------------------------------------------------------|
A|0-0-0-0-0-0-0-0-3-3-3-3-3-3-3-3-----------------5-5-5-5-5-5-5-5-|
D|--------------------------------3-3-3-3-3-3-3-3-----------------|

G|----------------------------------------------------------------|
D|----------------------------------------------------------------|
A|0-0-0-0-0-0-0-0-3-3-3-3-3-3-3-3---------------------------------|
D|--------------------------------3-3-3-3-3-3-3-3-3-3-3-3-3-3-3-3-|

That should be more accurate for the chorus, sorry about that

guest
You may want to rate the tab now too:
select rating
Wanna post a correction for this tab? Suggest correction