Oops, an error
Loading. Please wait.

Falling Down Tab

version 1
version 1

Whole song

Interactive

1,919 views 1 this week
2 commentsread comments
1 2 3 4 5
not so good
x 4
add to favorites
launch autoscroll
font size
0
reset
how to read this tab
guitar tuner
Autoscroll
slow
fast
+/-
esc
set tempo
stop
Help us to improve Ultimate-Guitar.com Take our survey!
×
Difficulty
novice
The Birthday Massacre
Falling Down
DADGBe

By: [RHEE]
www.myspace.com/chimaira_b_type

NOTE: PALM MUTING SHOULD BE DONE AS CLOSE AS YOU CAN GET TO THE BRIDGE

INTRO
-Palm Mute all

e--------------------------------------------------------|
B--------------------------------------------------------|
G----555--888-777-44-------------------------------------|
D--------------------------------------------------------|
A-333---77-----------------------------------------------|
D--------------------------------------------------------|

e--------------------------------------------------------|
B--------------------------------------------------------|
G----555---555-3-----------------------------------------|
D---------------5-4--------------------------------------|
A-333---777----------------------------------------------|
D--------------------------------------------------------|

e--------------------------------------------------------|
B----555-444-0-2-----------------------------------------|
G--------------------------------------------------------|
D--------------------------------------------------------|    X2
A-000----------------------------------------------------|
D--------------------------------------------------------|

RIFF AFTER INTRO

e--------------------------------------------------------|
B--------------------------------------------------------|
G-3----9-------------------------------------------------|
D-3 x8-9 x8-7----10--------------------------------------|
A-5----7----7 x8-10 x8-----------------------------------|
D-----------7----10--------------------------------------|

CHORUS

e--------------------------------------------------------|
B--------------------------------------------------------|
G-7----10--------------7----10---------10----------------|
D-7 x8-10 x8-3---------7 x8-10 x8-3----10 x8-------------|
A-5----8-----3 x16-----5----8-----3 x8-8-----------------|
D------------3--------------------3----------------------|

THAT AS FAR AS THE BRIDGE, AND IM TRYING TO FIGURE OUT HARMONICS IN THE BRIDGE
WILL ADD IN TIME
-ALTHO ANY HELP WOULD BE GREATLY APPRECIATED

RIFFS ABOVE USED AFTER BRIDGE, JUST LISTEN TO THE TRACK
Suggest correction
comments
print report bad tab
2 comments total.
0 reply
Audio~Geek 10 wrote on October 20 2008, 01:50 pm

The Riff after intro section doesn't seem right at all, not just because of the upside down chord.

0 reply
MusicMan24 1,114 wrote on October 18 2011, 04:31 pm

This tab doesn't even deserve a star

guest
You may want to rate the tab now too:
select rating
Please do not post tabs as comments. Select "correction" instead!