Oops, an error
Loading. Please wait.

Falling Down Tab

version 2
version 2

Whole song

Interactive

749 views 1 this week
1 commentread comment
1 2 3 4 5
worth learning
x 3
add to favorites
launch autoscroll
font size
0
reset
how to read this tab
guitar tuner
Autoscroll
slow
fast
+/-
esc
set tempo
stop
Help us to improve Ultimate-Guitar.com Take our survey!
×
Author
Difficulty
novice
This tab should be 100% correct i worked it out a few months back, i know
most people would think that its meant to be played in drop tuning but i
think it sounds exactly the same in standard and i have played it hundreads
of times and played it live 3 times and have had no complaints. Enjoy - Its
an awesome song to play and pretty easy too.


(Guitar 1 - Intro/Verse - Play palm mute)
e--------------------------------------------------------|
B--------------------------------------------------------|
G----555---1212121111-77----555---9997754----------------|(11's)
D--------------------------------------------------------|
A-333---777--------------333---777-----------------------|
E--------------------------------------------------------|


e--------------------------------------------------------|
B--------------------------------------------------------|
G----55544400022220----55544400022220--------------------|
D--------------------------------------------------------|
A-000---------------000----------------------------------|
E--------------------------------------------------------|
Play the intro as many times as needed.

(Guitar 2 verse/intro chords)
e--------------------------------------------------------|
B--------------------------------------------------------|
G-5555---5555--------------------------------------------|
D-5555---5555---7777---7777------------------------------|
A-3333---3333---7777---7777------------------------------|
E---------------5555---5555------------------------------|
The second guitar comes in after the intro is played once.


(Guitar 1 - Pre Chorus)
e--------------------------------------------------------|
B--------------------------------------------------------|
G-5----9----12----16-------------------------------------|
D-5----9----12----16----7--------------------------------|
A-3x8--7x8--10x8--14x8--7--------------------------------|
E-----------------------5x32-----------------------------|

(Guitar 2)
e--------------------------------------------------------|
B--------------------------------------------------------|
G-5------------------------------------------------------|
D-5-----7------------------------------------------------|
A-3x32--7------------------------------------------------|
E-------5x32---------------------------------------------|


(Chorus - Both Guitars)
e--------------------------------------------------------|
B--------------------------------------------------------|
G-7--------------5----7----------------------------------|
D-7----7----3----5----7----7----3------------------------|
A-5x8--7----3----3x8--5x8--7----3------------------------|
E------5x8--1x8------------5x8--1x16---------------------|
Play this twice.

These are the basics to the song, the song structure isnt hard to work out,
also there is a interlude/breakdown, you can just play the intro in clean
in this part, or make something, its up to you, hope this tab serves you
well, and let me know if i made any mistakes - Thankyou!
Suggest correction
Give kudos to tab author, rate the tab!
1 2 3 4 5
comments
print report bad tab
1 comment total.
0 reply
screamokid2k 31 wrote on June 19 2010, 11:05 am

despite you thinking it sounds right in standard
the first chords in the chorus are open d chords
as is drop d

guest
You may want to rate the tab now too:
select rating
Wanna post a correction for this tab? Suggest correction