Oops, an error
Loading. Please wait.

Goodnight Bass Tab

version 1
version 1

Whole song

Interactive

860 views 1 this week
no commentswrite comment
1 2 3 4 5
please rate
add to favorites
launch autoscroll
font size
0
reset
guitar tuner
Autoscroll
slow
fast
+/-
esc
set tempo
stop
Help us to improve Ultimate-Guitar.com Take our survey!
×
Author
Difficulty
Tuning
novice
D A D G B E
-------------------------------------------------------------------------------
			     Goodnight - The Birthday Massacre
-------------------------------------------------------------------------------

Tabbed By : Necrotic
e-mail: joelschwallier@gmail.com

Tuning: Drop D

Intro - Bass comes in at 0:14
G|--------------------------------------------------------------------------------|
D|--------------------------------------------------------------------------------|
A|--------------------------------0-0-0-0-2-2-2-2-----------------0-0-0-0-2-2-2-2-|
D|2-2-2-2-2-2-2-2-2-2-2-2-2-2-2-2-----------------5-5-5-5-5-5-5-5-----------------|

G|--------------------------------------------------------------------------------|
D|--------------------------------------------------------------------------------|
A|--------------------------------2-2-2-2-0-0-0-0-----------------0-0-0-0-2-2-2-2-|
D|2-2-2-2-2-2-2-2-2-2-2-2-2-2-2-2-----------------5-5-5-5-5-5-5-5-----------------|

Verse
G|-----------------------------------|
D|-----------------------------------|
A|-----------------2-2------0-0------|
D|2-2--------------------------------|x2

Pre-Chorus
G|------------------------------------------------------|
D|---------2-2------------------------------------------|
A|2-2---------------0-0---------------2-2---------------|
D|---------------------------2-2---------------2-2------|

Chorus
G|--------------------------------------------------------------------------------|
D|--------------------------------------------------------------------------------|
A|--------------------------------0-0-0-0-2-2-2-2-----------------0-0-0-0-2-2-2-2-|
D|2-2-2-2-2-2-2-2-2-2-2-2-2-2-2-2-----------------5-5-5-5-5-5-5-5-----------------|

G|--------------------------------------------------------------------------------|
D|--------------------------------------------------------------------------------|
A|--------------------------------2-2-2-2-0-0-0-0-----------------0-0-0-0-2-2-2-2-|
D|2-2-2-2-2-2-2-2-2-2-2-2-2-2-2-2-----------------5-5-5-5-5-5-5-5-----------------|

Verse
G|-----------------------------------|
D|-----------------------------------|
A|-----------------2-2------0-0------|
D|2-2--------------------------------|x2

Pre-Chorus
G|------------------------------------------------------|
D|---------2-2------------------------------------------|
A|2-2---------------0-0---------------2-2---------------|
D|---------------------------2-2---------------2-2------|

Chorus
G|--------------------------------------------------------------------------------|
D|--------------------------------------------------------------------------------|
A|--------------------------------0-0-0-0-2-2-2-2-----------------0-0-0-0-2-2-2-2-|
D|2-2-2-2-2-2-2-2-2-2-2-2-2-2-2-2-----------------5-5-5-5-5-5-5-5-----------------|

G|--------------------------------------------------------------------------------|
D|--------------------------------------------------------------------------------|
A|--------------------------------2-2-2-2-0-0-0-0-----------------0-0-0-0-2-2-2-2-|
D|2-2-2-2-2-2-2-2-2-2-2-2-2-2-2-2-----------------5-5-5-5-5-5-5-5-----------------|

Pre-Bridge
G|--------------------------------|
D|--------------------------------|
A|--------------------------------|
D|2---------------2---------------|

Bridge
G|----------------------------------------------------------------|
D|----------------------------------------------------------------|
A|--------------------------------2-2-2-2-2-2-2-2-0-0-0-0-0-0-0-0-|
D|2-2-2-2-2-2-2-2-5-5-5-5-5-5-5-5---------------------------------|

G|----------------------------------------------------------------|
D|----------------------------------------------------------------|
A|--------------------------------2-2-2-2-2-2-2-2-----------------|
D|2-2-2-2-2-2-2-2-5-5-5-5-5-5-5-5-----------------5-5-5-5-5-5-5-5-|

Verse           
G|-----------------------------------------------------------------|
D|-----------------------------------------------------------------|
A|--------------------------0--0--0--22---------------0--0--0--2---|
D|2--2--2----2---222-2-222-----------------55--5--55---------------|

G|------------------------------------------------------------|
D|------------------------------------------------------------|
A|-----------------------2--2--2--0------------0--0--0-2---2--|
D|-555-5-55----5--5-55----------------5--5-55-----------------|

Chorus
G|--------------------------------------------------------------------------------|
D|--------------------------------------------------------------------------------|
A|--------------------------------0-0-0-0-2-2-2-2-----------------0-0-0-0-2-2-2-2-|
D|2-2-2-2-2-2-2-2-2-2-2-2-2-2-2-2-----------------5-5-5-5-5-5-5-5-----------------|

G|--------------------------------------------------------------------------------|
D|--------------------------------------------------------------------------------|
A|--------------------------------2-2-2-2-0-0-0-0-----------------0-0-0-0-2-2-2-2-|
D|2-2-2-2-2-2-2-2-2-2-2-2-2-2-2-2-----------------5-5-5-5-5-5-5-5-----------------|

last Note
G|---------------------|
D|---------------------|
A|---------------------|
D|2--------------------|



| /  slide up
| \  slide down
| h  hammer-on
| p  pull-off
| ~  vibrato
| +  harmonic
| x  Mute note
===============================================================================
Suggest correction
Give kudos to tab author, rate the tab!
1 2 3 4 5
comments
print report bad tab
guest
You may want to rate the tab now too:
select rating
Please do not post tabs as comments. Select "correction" instead!