Oops, an error
Loading. Please wait.

Happy Birthday Tab

version 1
version 1

Whole song

Interactive

12,610 views 3 this week
no commentswrite comment
1 2 3 4 5
x 3
add to favorites
launch autoscroll
font size
0
reset
how to read this tab
guitar tuner
Autoscroll
slow
fast
+/-
esc
set tempo
stop
Help us to improve Ultimate-Guitar.com Take our survey!
×
Difficulty
novice
====the=============
Birthday massacre===== 
SONG:HAPPY BIRTHDAY=====

TABBED BY:CHINO(JOSE MURILLO)

tuning:DGCFAd

guitar 1
d----------------------------------|
A----------------------------------|
F-------------4~----------------7~-|
C--5~/--7~--2~4~----5~/--7~--2~/7~-|
G--5~/--7~--2~2~----5~/--7~--2~/5~-|
D--3~/--5~--0~------3~/--5~--0~/---|(2x)

strum each chord in a very rhythmatic manner so it could sound good

guitar 2
d---------------------------------------------------------|
A---------------------------------------------------------|
F--17-17-17-17-16-16-16-14-14-14-14-12-12-12-12-----------|
C---x--x--x--x--x--x--x--x--x--x--x--x--x--x--x-----------|
G--15-15-15-15-14-14-14-12-12-12-12-10-10-10-10-----------|
D---------------------------------------------------------|

d---------------------------------------------------------|
A---------------------------------------------------------|
F--17-17-17-17-19-19-19-14-14-14-14-10-10-10-10-----------|
C---x--x--x--x--x--x--x--x--x--x--x--x--x--x--x-----------|
G--15-15-15-15-17-17-17-12-12-12-12--8--8--8--8-----------|
D---------------------------------------------------------|(2x)
                                               ^
both riffs are played through most of the song-i


then,the fun part,
[u need the echo effect to play 
this, or else it wont sound right]

d---5~-3~---7~--5~--2~-3~----2~--3~------5~--3~--7~--5~--2~-3~----3~--232-----------------|
A--3~-3~--5~--5~--0~--0--3~0~--0~--3~-~3~--3~--5~--5~--0~-0~--3~0~--0~---3~---------------|
F-----------------------------------------------------------------------------------------|
C-----------------------------------------------------------------------------------------|
G-----------------------------------------------------------------------------------------|
D-----------------------------------------------------------------------------------------|

IT GOES RIGHT INTO
[ALSO NEED ECHO EFFECT!}==========**====
d---------------------------------------------------------|
A---------------------------------------------------------|
F---00--22------44----00--22------77--OO--22--------------|
C-00--22----44------00--22----44----00--22----44---75-----|
G---------22--33------------22--33----------22--55--------|
D---------------------------------------------------------|

IT GOES RIGHT INTO

guitar 1
d----------------------------------|
A----------------------------------|
F-------------4~----------------7~-|
C--5~/--7~--2~4~----5~/--7~--2~/7~-|
G--5~/--7~--2~2~----5~/--7~--2~/5~-|
D--3~/--5~--0~------3~/--5~--0~/---|(4X)


guitar 2
d---------------------------------------------------------|
A---------------------------------------------------------|
F--17-17-17-17-16-16-16-14-14-14-14-12-12-12-12-----------|
C---x--x--x--x--x--x--x--x--x--x--x--x--x--x--x-----------|
G--15-15-15-15-14-14-14-12-12-12-12-10-10-10-10-----------|
D---------------------------------------------------------|

d---------------------------------------------------------|
A---------------------------------------------------------|
F--17-17-17-17-19-19-19-14-14-14-14-10-10-10-10-----------|
C---x--x--x--x--x--x--x--x--x--x--x--x--x--x--x-----------|
G--15-15-15-15-17-17-17-12-12-12-12--8--8--8--8-----------|
D---------------------------------------------------------|(4X)

ANY PROBS OR FIXES CONTACT ME AT:MURILLO275@HOTMAIL.COM 
0R GO TO MYSPACE.COM/CHINO7666
Suggest correction
Give kudos to tab author, rate the tab!
1 2 3 4 5
comments
print report bad tab
guest
You may want to rate the tab now too:
select rating
Wanna post a correction for this tab? Suggest correction